Letras y Acordes |  Acordes |  Afinador |  IMC |  num A B C D E F G H I J K L M N O P Q R S T U V W X Y Z 
 
ï»ż
 

MALA MUJER - Los Sencillos  

Links Patrocinados / Anuncios:

una_columnados_columnasaumentar_letrareducir_letravista_scrollver_impresionver_impresion_con_acordes | votar: ++++++---- | Puntaje actual: 6.00

Links Patrocinados

Links Patrocinados

calculadora de indice de masa corporal IMC

Links Patrocinados




Diccionario de Nombres



Eb               Eb                Cm                  Eb
6------------------------------------------------------------------------
5------------------------------------------------------------------------
4------------------------------------------------------------------------
3--5-3--1-------3h5--3--1-------3h5--3--1----------------1-1--3h1---1-3h1
2---------3--1------------3--1-------------3--1--3---1h3----------3------
1------------------------------------------------------------------------


    Eb        Eb             Cm            Eb                    Eb
6------------------------------------------------------------------------
5------------------------------------------------------------------------
4------------------------------------------------------------------------
3---1-1----3h5-3--1-------3h5--3--1----------------1-1--3h1---1-3h1-----
2-3-----------------3--1-------------3--1--3---1h3----------3------------
1------------------------------------------------------------------------

6-------
5-------
4----1--
3-------
2--3----
1-------


Eb                                       Cm
No creas que estoy solo si no hay otra en tu lugar
                                    Eb
diciĂ©ndome las mismas cosas que decias tu.
                                         Cm
No creas que soy tan bobo para volver a querer,
                 G#                Fm
me has enseñado bien como las gasta una mujer.
                   G#
MĂĄs nunca tĂș tendrĂĄs,
Fm                 G#
paz en ningĂșn lugar


         Cm     Eb               Fm
Y no estarĂ­a mal decirme algĂșn porquĂ©
               Gm                         G#
explicarme algĂșn fallo, algĂșn error o yo que sĂ©.

         Cm     Eb               Fm
Y no estarĂ­a mal decirme algĂșn porquĂ©
               Gm                         G#
explicarme algĂșn fallo, algĂșn error o yo que sĂ©.



    Cm             Eb
Mala mujer mala mujer
           Fm            Gm
que me has robado el corazĂłn.


     Cm            Eb
Mala mujer mala mujer
       Fm                Gm
que me se ha llevado mi amor.



G5G5 G5G5 G5G5 G5G5

           Eb               Eb                Cm                  Eb
6------------------------------------------------------------------------
5------------------------------------------------------------------------
4------------------------------------------------------------------------
3--5-3--1-------3h5--3--1-------3h5--3--1----------------1-1--3h1---1-3h1
2---------3--1------------3--1-------------3--1--3---1h3----------3------
1------------------------------------------------------------------------

6---------
5---------
4---------
3-------1-
2---3-----
1---------


Eb                                       Cm
No volverĂĄn los peces en el parque a comer pan,
                                    Eb
que tĂș y yo lanzamos cada noche por amor.
                                      Cm
SĂ© que tu inteligencia te harĂĄ fĂĄcil olvidar,
                 G#               Fm
mĂĄs de mil recuerdos no caben en un rincĂłn.

                G#
Y sĂ© que llorarĂĄs
Fm              G#
que arde tu corazĂłn.


         Cm     Eb               Fm
Y no estarĂ­a mal decirme algĂșn porquĂ©
               Gm                         G#
explicarme algĂșn fallo, algĂșn error o yo que sĂ©.


         Cm     Eb               Fm
Y no estarĂ­a mal decirme algĂșn porquĂ©
               Gm                         G#
explicarme algĂșn fallo, algĂșn error o yo que sĂ©.


    Cm             Eb
Mala mujer mala mujer
           Fm            Gm
que me has robado el corazĂłn.


     Cm            Eb
Mala mujer mala mujer
         Fm              Gm
que me se ha llevado mi amor.



Guitarra 1
6------------------------------------------------------------------------
5------------------------------------------------------------------------
4------------------------------------------------------------------------
3---1---3-3-3-3--3-1-3-3-3-3--3-3-3-3-3-3----3-1-3-3-3-3--3-1-3-3-3--3-3-
2------------------------------------------------------------------------
1------------------------------------------------------------------------

6------------------------------------------------------------------------
5------------------------------------------------------------------------
4------------------------------------------------------------------------
3--3-3-3-3--3-1-3-3-3-3--3-3-3-3-3-3-------------------------------------
2------------------------------------------------------------------------
1------------------------------------------------------------------------



Guitarra 2

6----------------
5----------------
4-------5vb------
3---3h5-----5----
2----------------
1----------------


Eb           Eb               Eb                Cm                  Eb
6------------------------------------------------------------------------
5------------------------------------------------------------------------
4------------------------------------------------------------------------
3--5-3--1-------3h5--3--1-------3h5--3--1----------------1-1--3h1---1-3h1
2---------3--1------------3--1-------------3--1--3---1h3----------3------
1------------------------------------------------------------------------

6---------
5---------
4---------
3-------1-
2---3-----
1---------


G5G5 G5G5 G5G5


         Cm     Eb               Fm
Y no estarĂ­a mal decirme algĂșn porquĂ©
               Gm                         G#
explicarme algĂșn fallo, algĂșn error o yo que sĂ©.

<x4>


    Cm             Eb
Mala mujer mala mujer
           Fm            Gm
que me has robado el corazĂłn.


Cm            Eb
Muy mala muy mala,

Fm                 Gm
tĂș eres una mala mujer,
Cm           Eb        Fm
que me ha robado el corazĂłn
          Gm
y se ha llevado.

Cm     Eb       Fm                 G5G5 G5G5 G5G5 G5G5 G5 G5 Cm
Mala mujer, tĂș eres una mala mujer.


Acordes:

Eb:X65343
Cm:X35543
G#:466544
Fm:133111
Gm:355333
G5:355XXX

Xavier Fuentes Collado - acexavi@hotmail.com





Esta es una transcripcion personal de un usuario de www.letrasyacordes.net - El material contenido en esta pagina es para exclusivo uso privado, quedando prohibida su reproduccion o retransmision, asi como su uso con fines comerciales.


Letras y Acordes punto net, el mejor sitio para encontrar y compartir letras de canciones, con sus correspondientes acordes para guitarra y piano. No te olvides de votar para calificar la calidad de las letras
Palabras utilizadas para encontrar esta pĂĄgina:
Los Sencillos, MALA MUJER, letra y acordes de MALA MUJER de Los Sencillos, canciones de Los Sencillos, tocar con guitarra MALA MUJER, tocar con piano MALA MUJER, estudiar mĂșsica
Ver mĂĄs canciones de :

Los Sencillos


 
{c} 2016 - letrasyacordes.net