Letras y Acordes |  Acordes |  Afinador |  IMC |  num A B C D E F G H I J K L M N O P Q R S T U V W X Y Z 
 
´╗┐
 

Flores secas - Skay beilinson  

Links Patrocinados / Anuncios:

una_columnados_columnasaumentar_letrareducir_letravista_scrollver_impresionver_impresion_con_acordes | votar: ++++++---- | Puntaje actual: 6.00

Links Patrocinados

Links Patrocinados

calculadora de indice de masa corporal IMC

Links Patrocinados




Diccionario de Nombres



Intro: [E A]

|-7-4-5-|X2 Y X2 + E-A (se repite un a base
|-5-5-5-| similar durante casi todo el tema,
|-4-4-4-| cada una en el acorde
|-------| correspondiente)
|-------|
|-------|


E A E A
Ay! Callej├│n
E A E A
Ay! viejo callej├│n.
A A
Nunca fuiste
A A
calle ancha
A E A E A
avenida o boulevard.
A A
No tuviste
A A
las vidrieras
A A E A E A
ni las luces de ne├│n.
D
En tus muros
A E A E A
crecen flores, callej├│n.

(eNTRA BATER├ŹA-BAJO)
E A
Vos sos para m├ş
E A
perfume de azar
D A E A
sos vos callej├│n
E A
Vos sos como un sol
E A D A E
brillando en el cielo est├ís, callej├│n.

inter 1:
[E-A] [D-A-E]X2
S1 S1 S2
|---------------------0-|---|---------------2-4-5-7-12~--|
|-5-5-4-4-2---------0---|---|-5-5-4-4-2-4-5--------------|
|-----------4-2-1-1-----|---|----------------------------|
|-----------------------|---|----------------------------|
|-----------------------|---|----------------------------|
|-----------------------|---|----------------------------|


S3 * S4
|10-9--------------12-12---12|-|---------------------------|
|-----12-10-9-12--------12---|-|---------------------------|
|----------------9-----------|-|7-7-6----------------------|
|----------------------------|-|------9-7-6-7-9------------|
|----------------------------|-|----------------7----------|
|----------------------------|-|---------------------------|
S5 S6
|--------------------|----------------------------------|
|--------------------|----------------------------------|
|-7-7-6--------------|-------------------------4--------|
|-------9-7-6-7-9-6--|---------4-6-7-7-7-7-6-7---6------|
|--------------------|-5-5-5-5---------------------7----|
|--------------------|----------------------------------|
S7
|------------------------------------------------------|
|------------------------------------------------------|
|------------------------------------------------------|
|------------------------------------------------------|
|-5-5-5-5-4-2-0-0--------------------------------------|
|-----------------5-5-4-2-0----------------------------|

*= bajada con D A E
inter 2:
[E] [A-E-D-A-E]

(En el "A" se agrega un arreglo que acompa├▒a las s├şlabas de las estrofas, se├▒aladas en min├║scula con el nombre de la nota del arreglo)

A e eb eb db e eb eb db
Tus ve-re-das de su-bur-bio
A e eb eb db E A E-A
son de tie-rra, callej├│n.
A e eb eb db
Por las no-ches
A e eb eb db A e eb eb db E A E-A
sos tes-ti-go de mil sue-├▒os, callej├│n.
D
En tus muros
A E A E-A
crecen flores, callej├│n.

Final: [D-A-E]

, para los pez de los katinga.





Esta es una transcripcion personal de un usuario de www.letrasyacordes.net - El material contenido en esta pagina es para exclusivo uso privado, quedando prohibida su reproduccion o retransmision, asi como su uso con fines comerciales.


Letras y Acordes punto net, el mejor sitio para encontrar y compartir letras de canciones, con sus correspondientes acordes para guitarra y piano. No te olvides de votar para calificar la calidad de las letras
Palabras utilizadas para encontrar esta página:
Skay beilinson, Flores secas, letra y acordes de Flores secas de Skay beilinson, canciones de Skay beilinson, tocar con guitarra Flores secas, tocar con piano Flores secas, estudiar m├║sica
Ver más canciones de :

Skay beilinson


 
{c} 2016 - letrasyacordes.net