Letras y Acordes |  Acordes |  musica y amigos |  Afinador | 
 
num  A  B  C  D  E  F  G  H  I  J  K  L  M  N  O  P  Q  R  S  T  U  V  W  X  Y  Z  

 

PRÓFUGOS - Soda Stereo  

Links Patrocinados / Anuncios:

una_columnados_columnasaumentar_letrareducir_letravista_scrollver_impresionver_impresion_con_acordes | votar: ++++++---- | Puntaje actual: 6.00

Links Patrocinados

Links Patrocinados

calculadora de indice de masa corporal IMC

Links Patrocinados




Diccionario de Nombres



Gmaj7 ==>

E|--3--
A|--2--
D|--0--
G|--0--
B|--0--
E|--2--

riff X4  (Rapido)

      E7
E|----------------------
A|--5-2-5-4-0-2---------
D|--------------5-4-0---
G|----------------------
B|----------------------
E|----------------------

      E7
E|----------------------
A|--5-2-5-4-0-2---------
D|--------------5-4-0---
G|----------------------
B|----------------------
E|----------------------

      A7
E|----------------------
A|----------------------
D|--5-2-5-4-0-2---------
G|--------------5-4-0---
B|----------------------
E|----------------------

      A7
E|----------------------
A|----------------------
D|--5-2-5-4-0-2---------
G|--------------5-4-0---
B|----------------------
E|----------------------


Gmaj7                D
Somos complices los dos

E|-----------
A|--5-5-5----
D|--7-7-7----
G|--7-7-7----
B|--7-5-8----
E|--5-5-5----


Em( casilla VII )         Bm (casilla VII)
al menos se que huyo porque amo
Gmaj7                D
necesito distinción

E|-----------
A|--5-5-5----
D|--7-7-7----
G|--7-7-7----
B|--7-5-8----
E|--5-5-5----

Em7
estar asi despierto

E|-2--
A|-4--
D|-2--
G|-4--
B|-2--
E|-2--

es un delirio de condenados

Riff X2

Gmaj7                  D
Como un efecto residual

E|-----------
A|--5-5-5----
D|--7-7-7----
G|--7-7-7----
B|--7-5-8----
E|--5-5-5----

Em (casilla VII)         Bm (casilla VII)
yo siempre tomare el desviro
Gmaj7                  D
tus ojos nunca mentiran

E|-----------
A|--5-5-5----
D|--7-7-7----
G|--7-7-7----
B|--7-5-8----
E|--5-5-5----

Em7
pero ese ruido blanco

E|-2--
A|-4--
D|-2--
G|-4--
B|-2--
E|-2--

es una alarma en mis oidos


D(casilla V) Am(casilla V)
No seas tan cruel

Em(casilla VII) (casilla VII)
no busques más pretextos

D(casilla V) Am(casilla V)
no seas tan cruel

Em(cas VII) G(cas VII)C(cas VIII)  Em
siempre seremos profugos los dos


E|----------------
A|----------------
D|-----9--9---9---
G|---9------9-----
B|-7--------------
E|----------------   ( VARIAS VECES )

Riff X2

No tenemos donde ir

somos como un area desvastada

carreteras sin sentido

religiones sin motivo,  como podremos sobrevivir



No seas tan cruel

no busques más pretextos

no seas tan cruel

siempre seremos

siempre seremos profugos los dos


solo y Riff X2


D (casilla V) Am (casilla V)
Ven, no seas tan cruel

Em (cas VII)      Bm(cas VII)
no busques más pretextos

D(cas V)   Am(cas V)
no seas tan cruel

Em(cas VII)     G(cas VII)   D Am  Em Bm D Am Em
siempre seremos profugos

                  G   D  Am Em Bm D Am Em G
siempre seremos profugos...

                Em D C  G
siempre seremos...





Esta es una transcripcion personal de un usuario de www.letrasyacordes.net - El material contenido en esta pagina es para exclusivo uso privado, quedando prohibida su reproduccion o retransmision, asi como su uso con fines comerciales.


Articulo Destacado: Un video de un muchacho virtuoso

 
Una verdadera joyita lo que hace este muchacho con la guitarra
 
Letras y Acordes punto net, el mejor sitio para encontrar y compartir letras de canciones, con sus correspondientes acordes para guitarra y piano. Registrate en nuestro foro y enterate cómo agregar tus propias transcripciones. No te olvides de votar para calificar la calidad de las letras
Palabras utilizadas para encontrar esta página:
Soda Stereo, PRÓFUGOS, letra de PRÓFUGOS de Soda Stereo, letras, letra, acordes, canciones, letras de cancion, lyrics, cancion, grupo, banda, cantante, tablatura, partitura, tocar con guitarra, tocar con piano, tocar con bajo, armónica, teclado, bajo, ejecutar, estudiar música
Ver más canciones de :

Soda Stereo


 
{c} 2007 / 2011 - letrasyacordes.net