Letras y Acordes |  Acordes |  Afinador |  IMC |  num A B C D E F G H I J K L M N O P Q R S T U V W X Y Z 
 

 

IDILIO - Willie Colon  

Links Patrocinados / Anuncios:

una_columnados_columnasaumentar_letrareducir_letravista_scrollver_impresionver_impresion_con_acordes | votar: +++++++--- | Puntaje actual: 7.67

Links Patrocinados

Links Patrocinados

calculadora de indice de masa corporal IMC

Links Patrocinados




Diccionario de Nombres



Esta versión es para full guitarra.
Saludos!

Con capo en el 1er. Traste.

Intro: E - Am - D - G - C - B - Em
e|---------------------------------------------------------------------
B|—--6-6-4-6-4-6-4---4---6---------------8-6---------------------------
G|-5---------------6---6---6-------5-6-8-----8-5-6---------------------
D|---------------------------8---8-----------------8-6-5----------5-6--
A|--------------------------------------------------------6-8-6-8------
E|---------------------------------------------------------------------

e|-------------------------------------------------------------|
B|—----------------------------------------6-5-----------------|
G|-----------3-4.-3---4-4-4-3---4/5----6-5-----5.-4-3----3/1---|
D|---------6--------6---------6-----5------------------3-----3-|
A|-------6-----------------------------------------------------|
E|-4-6-7-------------------------------------------------------|


          Em             B                 Em
Solo me alienta el deseo divino de hacerte mia
           E                                Am
mas me destruye la insertidumbre que estoy pasando
          B                                      Em
es que la nieve cruel de los años mi cuerpo enfría
          F#                               B
y se me agota ya la paciencia por ti esperando
                                          Em
y se me agota ya la paciencia por ti esperando.


*CORO
        E                              Am
Que a besos yo te levante al rayar el día
           D                                  G
y que el idilio perdure siempre al llegar la noche
   C                              B
y cuando venga la aurora llena de goce
                                    Em
se fundan en una sola tu alma y la mía.              (x2)


Solo: E - Am - D - G - C - B - Em
e|------------------------------------
B|—-----------6-----------------------
G|-4-5----4-5--------(muy rápido :D)--
D|-----3------------------------------
A|------------------------------------
E|------------------------------------

e|---------------------------------------------------------------
B|—--------8-6---------------------------------------------------
G|---5-6-8-----8-6-5-----------------1-3-4.-3-1------------------
D|-8-----------------8-8-6-8-6-----------------3-1---------------
A|-----------------------------6-------------------4-6-4-6/7-3.--
E|---------------------------------------------------------------

e|---------------------------------|
B|—----2-1-----6-5-----------------|
G|---1-------5-----5-4-3.----3-1---|
D|-3-----------------------3-----3-|
A|---------------------------------|
E|---------------------------------|


*CORO (x2)
     B            F#m     B7         Em
se fundan en una sola tu alma y la mia.


Em - Am - B - Em (x3)


Em   Am     D   G     C  Am                B         Em
Soñando  contigo queriendo que se cumpla nuestro idilio
(Em - Am - D - G - C - Am - B - Em)
A veces yo me voy a un rincón
y me quedo en el vacío, sufriendo por ti amor mio
te llama mi corazón.
Em   Am     D   G     C  Am                B         Em
Soñando  contigo queriendo que se cumpla nuestro idilio
(Em - Am - D - G - C - Am - B - Em)
Y veras lo lindo que es el amor cuando se quiere de verdad
no existe duda, no existe el rencor
solo un coraszón que es para los dos!

Em - Am - B - Em (x3)

Guapea Willie Colón!!!

Solo: Em - Am - B
e|---8---6--------------------------------------------------------
B|—----------6----6-6-6-<8>.-6-6-6-<8>.-6-6-6-<8>.--9/11.-9-8-----
G|-5---5---5--------------------------------------------------10--
D|----------------------------------------------------------------
A|----------------------------------------------------------------
E|----------------------------------------------------------------

e|---------------------------------------------
B|—9/11p9-9/11p9-9/11p9-9/11p9-9/11p9--9/11----
G|------------------------------------------9--
D|---------------------------------------------
A|---------------------------------------------
E|---------------------------------------------

e|-----------------------------------------|
B|—------6-4---------------------5---9/11.-|
G|-5-5-5-----5-----------5---6-5-----------|
D|-------------7-5---8-7---7-------5-------|
A|-----------------8-----------------------|
E|-----------------------------------------|


Em   Am     D   G     C  Am                B         Em
Soñando contigo queriendo que se cumpla nuestro idilio
(Em - Am - D - G - C - Am - B - Em)
Eeeh yo esperaría mil años si fuera tu condición
pero el tiempo va volando, ven y calma mi pasión.
Em   Am     D   G     C  Am                B         Em
Soñando contigo queriendo que se cumpla nuestro idilio
(Em - Am - D - G - C - Am - B - Em)
Y así muy juntos volver a sentir que se funden tu alma y la mía
en un abrazo, un idilio de amor.



Fm - A#m - C - Fm (x4)




                   --------
                º-| ¤    ¤ |-º
                º-|  LuïS  |-º
                º-| ¤    ¤ |-º
                          /
                    |    |
        ·===========================·
        | luis_6cuerdas@hotmail.com |
        ·===========================·


*Si hubiese algún error o alguna duda, escribe al mail o avisa por MSN*





Esta es una transcripcion personal de un usuario de www.letrasyacordes.net - El material contenido en esta pagina es para exclusivo uso privado, quedando prohibida su reproduccion o retransmision, asi como su uso con fines comerciales.


Letras y Acordes punto net, el mejor sitio para encontrar y compartir letras de canciones, con sus correspondientes acordes para guitarra y piano. No te olvides de votar para calificar la calidad de las letras
Palabras utilizadas para encontrar esta página:
Willie Colon, IDILIO, letra y acordes de IDILIO de Willie Colon, canciones de Willie Colon, tocar con guitarra IDILIO, tocar con piano IDILIO, estudiar música
Ver más canciones de :

Willie Colon


 
{c} 2016 - letrasyacordes.net