Letras y Acordes |  Acordes |  musica y amigos |  Afinador | 
 
num  A  B  C  D  E  F  G  H  I  J  K  L  M  N  O  P  Q  R  S  T  U  V  W  X  Y  Z  

 

El Andariego - Alejandro Fernandez  

Links Patrocinados / Anuncios:

una_columnados_columnasaumentar_letrareducir_letravista_scrollver_impresionver_impresion_con_acordes | votar: ++++++---- | Puntaje actual: 6.00

Links Patrocinados

Links Patrocinados

calculadora de indice de masa corporal IMC

Links Patrocinados




Diccionario de Nombres



IMPORTANTE:
Para todos mis perrines guitarristas y requintistas, les traigo esto ya que me decepcionan
los otros dos requintos que hasta dan lastima, juro que esta cancion no me agrada pero
por las pendejadas de los otros bueyes que en tan solo verlos... mejor ya ni digo nada, sin
comentarios pero a este si se le entiende y  se olle mejor, lo juro



                     EL ANDARIEGO


G--4-3-4-----------------------------------------
B--------4-4/7--5--5/7--5--5/7--7-7-7--8--8-7-5--
e----------2/5--3--3/5--3--3/5--5-5-5--7--7-5-3--


se repite

G--4-3-4-----------------------------------------
B--------4-4/7--5--5/7--5--5/7--7-7-7--8--8-7-5--
e----------2/5--3--3/5--3--3/5--5-5-5--7--7-5-3--

despues!!!!
G--9-8-9-----------------------------------------------------
B--------9-9/12--10--10/12--10--10/12--12-12-12--13--13-12-10
e----------7/10---8--8/10----8---8/10--10-10-10--12--12-10--8

casi acabamos!!! no se rindan
G-------------------------------------------------9--------8
B----------------12-12--------12-10-10-12---12-10---12-10-12
e---8-10-12-10-8-------8-10-8-------------8---------------12


Nota: en esta parte, aconsejo poner media cejilla en el traste 8 y no mover el dedo
hasta que termine en las tres cuerdas juntas, pero si son como yo no hagan caso e
ingenienselas para que les salga perfecto.


ahhh pero les gusta el reto verdad?!!!
G--10/16--16-16--16--16--16-16--16--16--16
B--10/16-----16--16------16-16------16--16
e------------15--15------15-15------15--16

solo le recorren un traste!!
G--16-16--16--16--16-16--16--16--16
B-----17--17------17-17------17--17
e-----15--15------15-15------15--16

otra vez!
G-16-16--16--16--16-16--16--16--16
B----16--16------16-16------16--16
e----15--15------15-15------15--16

igual que arriba!!!
G--16-16--16--16--16-16--16--16--16
B-----17--17------17-17------17--17
e-----15--15------15-15------15--16

pisenle un poco adelante...!!
G--17--17--17--17--17--17--17--17--17--
B------18--18------18--18------18--18--
e------16--16------16--16------16--16--

otro mas!
G--19--19--19--19--19--19--19--19--19--
B------19--19------19--19------19--19--
e------18--18------18--18------18--18--


y ya se saben esto!!!
G-------------------------------------------------9--------8
B----------------12-12--------12-10-10-12---12-10---12-10-12
e---8-10-12-10-8-------8-10-8-------------8---------------12


y solo recuerden, esos perrines solo la cagan, si quieren la transcripcion,
mejor pidanla !!!!la cagan perrines la cagan





Esta es una transcripcion personal de un usuario de www.letrasyacordes.net - El material contenido en esta pagina es para exclusivo uso privado, quedando prohibida su reproduccion o retransmision, asi como su uso con fines comerciales.


Articulo Destacado: Mantenimiento de la Guitarra - Cuidados Generales

 

 
fuente
 
Letras y Acordes punto net, el mejor sitio para encontrar y compartir letras de canciones, con sus correspondientes acordes para guitarra y piano. Registrate en nuestro foro y enterate cómo agregar tus propias transcripciones. No te olvides de votar para calificar la calidad de las letras
Palabras utilizadas para encontrar esta página:
Alejandro Fernandez, El Andariego, letra de El Andariego de Alejandro Fernandez, letras, letra, acordes, canciones, letras de cancion, lyrics, cancion, grupo, banda, cantante, tablatura, partitura, tocar con guitarra, tocar con piano, tocar con bajo, armónica, teclado, bajo, ejecutar, estudiar música
Ver más canciones de :

Alejandro Fernandez


 
{c} 2007 / 2011 - letrasyacordes.net