Letras y Acordes |  Acordes |  Afinador |  IMC |  num A B C D E F G H I J K L M N O P Q R S T U V W X Y Z 
 

 

Despues de tĂ­ - Alejandro Lerner  

Links Patrocinados / Anuncios:

una_columnados_columnasaumentar_letrareducir_letravista_scrollver_impresionver_impresion_con_acordes | votar: +++++----- | Puntaje actual: 5.80

Links Patrocinados

Links Patrocinados

calculadora de indice de masa corporal IMC

Links Patrocinados




Diccionario de Nombres



Diana… esta canciĂłn quedĂł en la historia…

INTRO
Suena 1 sola guitarra haciendo Do â€“ Lam â€“ Mim â€“ Sol , con una rasgueo asĂ­:

|--------Do----------|--------Lam---------|-------Mim----------|--------Sol---------|

|-^--^---^-|-|-^-^-^-|-^--^---^-|-|-^-^-^-|-^--^---^-|-|-^-^-^-|-^--^---^-|-|-^-^-^-|
|-|--|---|-|-|-|-|-|-|-|--|---|-|-|-|-|-|-|-|--|---|-|-|-|-|-|-|-|--|---|-|-|-|-|-|-|
|-|--|---|-|-|-|-|-|-|-|--|---|-|-|-|-|-|-|-|--|---|-|-|-|-|-|-|-|--|---|-|-|-|-|-|-|
|-|--|---|-v-v-|-|-|-|-|--|---|-v-v-|-|-|-|-|--|---|-v-v-|-|-|-|-|--|---|-v-v-|-|-|-|
|-|------------------|-|------------------|-|------------------|-|------------------|
|--------------------|--------------------|--------------------|--------------------|

Antes de terminar â€śSol” una guitarra comienza el bajo y una tercera realiza el siguiente punteo mientras
la primera sigue tocando los mismos acordes:

|----3/8-8----------------10h8-8-------------10—8/7-8----------------7/3-3--------------------|
|----3/8-8-----------------8h8-8-------------10-8/7-8----------------7/3-3--------------------|
|----0----------------------------------------------------------------------------------------|
|---------------------------------------------------------------------------------------------|
|---------------------------------------------------------------------------------------------|
|---------------------------------------------------------------------------------------------|

|--------Do----------|--------Lam---------|-------Mim----------|--------Sol---------|

|-^--^---^-|-|-^-^-^-|-^--^---^-|-|-^-^-^-|-^--^---^-|-|-^-^-^-|-^--^---^-|-|-^-^-^-|
|-|--|---|-|-|-|-|-|-|-|--|---|-|-|-|-|-|-|-|--|---|-|-|-|-|-|-|-|--|---|-|-|-|-|-|-|
|-|--|---|-|-|-|-|-|-|-|--|---|-|-|-|-|-|-|-|--|---|-|-|-|-|-|-|-|--|---|-|-|-|-|-|-|
|-|--|---|-v-v-|-|-|-|-|--|---|-v-v-|-|-|-|-|--|---|-v-v-|-|-|-|-|--|---|-v-v-|-|-|-|
|-|------------------|-|------------------|-|------------------|-|------------------|
|--------------------|--------------------|--------------------|--------------------|

BAJO:     |-3--3---3-3-3-3-3-3-|--------------------|--------------------|--------------------|
|--------------------|-5--5---5-5-5-5-5-5-|--0--0---0-0-0-0-0-0|-3--3---3-3-3-3-3-3-|


Dense cuenta que al terminar la primera parte del punteo comienza el acorde DO, luego de la segunda parte
del punteo comienza Lam, y asĂ­ sucesivamente. El baj
 antes mencionado es solo para las estrofas y el coro, Ya que el precoro y postcoro llevan uno distinto.


ESTROFAS
En las dos primeras estrofas se pueden rasguear hasta 2 guitarras y la tercera haciendo el bajo.

  C
Yo no me arrepiento,
        Am
De las cosas que he vivido,
          Em
de los sueños derramados,
          G
de las noches de sudor,


   C
De entre tantas Cosas,
         Am
Que el camino me  ha enseñado,
          Em
no hay pecado más terrible,
          G
que  no haber sentido Amor,


PRECORO
ACORDES EN EL PRECORO |--------Rem---------|--------Lam---------|--------Sol---------|--------Sol---------|

BAJO EN EL PRECORO    |-5--5---5-5-5-5-5-5-|--------------------|--------------------|--------------------|
                      |--------------------|-5--5---5-5-5-5-5-5-|-3--3---3-3-3-3-3-3-|-3--3---3-3-3-3-3-3-|

El rasgueo aquĂ­ en el precoro es el mismo como en los demás acordes.

      Dm
Que es lo que pasa,
                 Am
Si todavĂ­a estoy vivo,
              G           G
TodavĂ­a Respiro...

             Dm
Como entregarme
                      Am
de nuevo en cada suspiro,
            G      g
DespuĂ©s de ti

|----3/7---------7/1-----|
|----3/7---------7/8-----|
|----0----------------------|
|---------------------------|
|---------------------------|
|---------------------------|


CORO
Los acordes y el bajo del coro son las mismas que en las estrofas.

                         C
DespuĂ©s de ti ya no hay nada,
|--------12------10------12----------|
|------------------------------------|
|------------------------------------|
|------------------------------------|
|------------------------------------|
|------------------------------------|



                  Am
ya no queda mas nada,
|--------12------10------12----------|
|------------------------------------|
|------------------------------------|
|------------------------------------|
|------------------------------------|
|------------------------------------|

        Em           G
Nada de nada
|------------------------------------|
|------------------------------------|
|----------------7h9--7--------------|
|------------------------------------|
|------------------------------------|
|------------------------------------|


                         C
DespuĂ©s de ti es el olvido,
|--------12------10------12----------|
|------------------------------------|
|------------------------------------|
|------------------------------------|
|------------------------------------|
|------------------------------------|

                 Am
un recuerdo perdido,
|--------12------10------12----------|
|------------------------------------|
|------------------------------------|
|------------------------------------|
|------------------------------------|
|------------------------------------|


        Em            G
Nada de nada.
|---------------------------------------|
|---------11h12p11h12p11h12p11/8--8-10-|
|---7h9---------------------------------|
|---------------------------------------|
|---------------------------------------|
|---------------------------------------|

POSCORO
     Dm                          Am
Como voy a llenar este espacio vacĂ­o
           G     G
DespuĂ©s de ti
|-------------------------------|
|-------------------------------|
|-------------------------------|
|---9h10p10x510p9--------------|
|-------------------------------|
|-------------------------------|

                       C   Am    Em   G
Como vivir despuĂ©s de ti.



ESTROFAS

   C                         Am
Dejare que el tiempo, cure todas las heridas
           Em
Y aunque queme por dentro,
                 G
SĂ© que voy a renacer


Cuando el cielo llora
Nunca nadie le pregunta dĂłnde duele
Porque llueve, porque deja de llover


      Dm
Que es lo que pasa,
                 Am
Si todavĂ­a estoy vivo,
              G           G
TodavĂ­a Respiro...

             Dm
Como entregarme
                      Am
de nuevo en cada suspiro,
            G      g
DespuĂ©s de ti

|----3/7---------7/1-----|
|----3/7---------7/8-----|
|----0----------------------|
|---------------------------|
|---------------------------|
|---------------------------|

|-------------------------------|
|-------------------------------|
|-------------------------------|
|---9h10p10x510p9--------------|
|-------------------------------|
|-------------------------------|





CORO
Los acordes y el bajo del coro son las mismas que en las estrofas.

                         C
DespuĂ©s de ti ya no hay nada,
|--------12------10------12----------|
|------------------------------------|
|------------------------------------|
|------------------------------------|
|------------------------------------|
|------------------------------------|



                  Am
ya no queda mas nada,
|--------12------10------12----------|
|------------------------------------|
|------------------------------------|
|------------------------------------|
|------------------------------------|
|------------------------------------|

        Em           G
Nada de nada
|------------------------------------|
|------------------------------------|
|----------------7h9--7--------------|
|------------------------------------|
|------------------------------------|
|------------------------------------|


                         C
DespuĂ©s de ti es el olvido,
|--------12------10------12----------|
|------------------------------------|
|------------------------------------|
|------------------------------------|
|------------------------------------|
|------------------------------------|

                 Am
un recuerdo perdido,
|--------12------10------12----------|
|------------------------------------|
|------------------------------------|
|------------------------------------|
|------------------------------------|
|------------------------------------|


        Em            G
Nada de nada.
|---------------------------------------|
|---------11h12p11h12p11h12p11/8--8-10-|
|---7h9---------------------------------|
|---------------------------------------|
|---------------------------------------|
|---------------------------------------|

POSCORO

  Dm                   Am
Debes en cuando tengo frĂ­o,
                        G
Y le pregunto a mi destino,
            Dm
Como entregarme,
                  Am
en cada nuevo suspiro,
            G    Gsus4  G
DespuĂ©s de ti.
                       C    Am  Em G
Como vivir despuĂ©s de ti(4 v)

FIN
Esta canciĂłn es muy buena en esos momentos en que se sienten
con ganas de ahorcarse.. disfrutenla...





Esta es una transcripcion personal de un usuario de www.letrasyacordes.net - El material contenido en esta pagina es para exclusivo uso privado, quedando prohibida su reproduccion o retransmision, asi como su uso con fines comerciales.


Letras y Acordes punto net, el mejor sitio para encontrar y compartir letras de canciones, con sus correspondientes acordes para guitarra y piano. No te olvides de votar para calificar la calidad de las letras
Palabras utilizadas para encontrar esta página:
Alejandro Lerner, Despues de tĂ­, letra y acordes de Despues de tĂ­ de Alejandro Lerner, canciones de Alejandro Lerner, tocar con guitarra Despues de tĂ­, tocar con piano Despues de tĂ­, estudiar mĂşsica
Ver más canciones de :

Alejandro Lerner


 
{c} 2016 - letrasyacordes.net