Letras y Acordes |  Acordes |  musica y amigos |  Afinador | 
 
num  A  B  C  D  E  F  G  H  I  J  K  L  M  N  O  P  Q  R  S  T  U  V  W  X  Y  Z  

 

SUEÑO DE MORIR - Alex Campos  

Links Patrocinados / Anuncios:

una_columnados_columnasaumentar_letrareducir_letravista_scrollver_impresionver_impresion_con_acordes | votar: ++++++++-- | Puntaje actual: 8.57

Links Patrocinados

Links Patrocinados

calculadora de indice de masa corporal IMC

Links Patrocinados




Diccionario de Nombres



Bendiciones esto es como va mas o menos el canto
ya que cambian un poco los adornos del punteo
pero para hacer las notas es simple se que les
va a ayudar muchisimo como a mi me ayudo


           Estando cerca del momento       allí te conocí

              Bm                      D             A
E|------------------------|----------------|---------------|
A|--2---------------------|----------------|---------------|
D|-----4------------------|----------------|---------------|
G|--------4---------------|--7-------------|--6------------|
B|-----------2------------|-----7-----7----|-----5-----5---|
e|--------------2---------|--------5-------|--------5------|
Miro tu rostro y tu silencio sabría aprender de ti

              Bm                    D             A
E|------------------------|----------------|---------------|
A|--2---------------------|----------------|--0------------|
D|-----4-----4-----4------|--0-------------|-----11--------|
G|--------4---------------|-----2----------|---------9-----|
B|--------------------3---|--------3-------|---------------|
e|--------------2---------|-----------2----|------------12-|
      Tu cuerpo lento y maltratado el mundo te golpeo

               Bm                   D             A
E|------------------------|----------------|---------------|
A|--2---------------------|----------------|--0------------|
D|-----4------------------|--0-------------|-----2-----2---|
G|--------4---------------|-----2-----2----|--------2------|
B|-----------2------------|--------3-------|---------------|
e|--------------2---------|--------------2-|--------------2|
Sangre y lágrimas mezcladas       Fue tu Sueño de

          Bm                   D                  A
E|------------------------|----------------|---------------|
A|--2---------------------|----------------|--0------------|
D|-----4------------------|--0-------------|-----2-----2---|
G|--------4---------------|-----7-----7----|--------2------|
B|-----------2------------|--------7-------|---------------|
e|--------------2---------|--------------10|--------------2|

Morir                                                  Fue tu Sueño
          Bm                   D                  A
E|------------------------|----------------|-----------------------|
A|------------------------|----------------|-----------------------|
D|------------------------|----------------|-----------------------|
G|------------------------|-----7----------|------9----------9-----|
B|--2--3------------------|--------7-------|--10---------10--------|
e|--------2---------------|--5-------------|---------12---------12-|
de Morir

         Bm                    D                 A
e|------------------------|----------------|-----------------------|
B|------------------------|----------------|-----------------------|
G|------------------------|----------------|-----------------------|
D|------------------------|----------------|------9-----------9----|
A|--2--3------------------|---2--3--7------|--10---------10--------|
E|--------2---------------|----------------|---------12---------12-|
       El cielo anuncia el momento Que marcara ya el fin

         Bm                    D               A
E|------------------------|----------------|-----------------------|
A|--2---------------------|----------------|-----------------------|
D|-----4------------------|--0-------------|--11-------------------|
G|--------4---------------|-----7-----7----|------9------9---------|
B|-----------2------------|--------------7-|---------10------------|
e|--------------2---------|--------5-------|----------------12-----|
 La lluvia moja el sufrimiento El cielo oirá el gemir

              Bm                      D             A
E|------------------------|----------------|-----------------------|
A|--2---------------------|----------------|-----------------------|
D|-----4------------------|--0-------------|--11-------------------|
G|--------4---------------|-----7-----7----|------9------9---------|
B|-----------2------------|--------------7-|---------10------------|
e|--------------2---------|--------5-------|----------------12-----|
El padre ve morir su hijo Ve a su niño allí partir


               Bm                    D             A
E|------------------------|----------------|-----------------------|
A|--2--------2------------|----------------|-----------------------|
D|-----4--------------4---|--0-------------|--7--------------------|
G|--------4--------4------|-----7-----7----|-----7-----7-----------|
B|------------------------|--------------7-|--------------7--------|
e|--------------2---------|--------5-------|--------5--------------|
      El día se convierte en Luto Fue tu Sueño de

            Bm                    D                A
E|------------------------|----------------|-----------------------|
A|--2---------------------|----------------|-----------------------|
D|-----4------------------|--0-------------|--11-------------------|
G|--------4---------------|-----7-----7----|------9------9---------|
B|-----------2------------|--------------7-|---------10------------|
e|--------------2---------|--------5-------|----------------12-----|
 Morir                              Fue tu Sueño de

           Bm                     D                 A
E|------------------------|----------------|-----------------------|
A|------------------------|----------------|-----------------------|
D|------------------------|----------------|-----------------------|
G|------------------------|-----7----------|--7--9------7--9-------|
B|--2--3--2--3------------|--------7-------|--------10--------10---|
e|------------------------|--5-------------|-----------------------|

 Morir
           Bm                     D                 A
E|------------------------|----------------|-----------------------|
A|------------------------|----------------|-----------------------|
D|------------------------|----------------|-----------------------|
G|------------------------|-----7----------|--7--9-----------------|
B|--2--3------------------|--------7-------|--------10-------------|
e|--------2---------------|--5-------------|-----------------------|

aqui entra el coro

C#m                           A
  Sangre y Silencio fue el precio
                      E
  Fue el costo de mí vivir
                       B
  No sabré como agradecerte
                  Cm#
  Yo mi vida daré a ti
                     A
  En todo tiempo seré tuyo
                         E
  Una ofrenda me entrego a ti
                      B
  Tu sueño hoy se hizo Vida
              (Bm  D  A)x2
  Tu Sueño de Morir

E|------------------------|----------------|-----------------------|
A|------------------------|----------------|-----------------------|
D|------------------------|----------------|-----------------------|
G|------------------------|-----7----------|------9----------------|
B|--2--3------------------|--------7-------|--10-------------------|
e|--------2---------------|--5-------------|---------12--12--------|


E|------------------------|----------------|-----------------------|
A|------------------------|----------------|--0--------------------|
D|------------------------|----------------|-----2-----2-----------|
G|------------------------|-----7----------|--------2--------------|
B|--2--3------------------|--------7-------|-----------------------|
e|--------2---------------|--5-------------|--------------2--------|



 Aunque no entienda el silencio   Al dar tu vida por mí
          Bm                   D                  A
E|------------------------|----------------|-----------------------|
A|--2---------------------|----------------|-----------------------|
D|-----4------------------|--0-------------|--11-------------------|
G|--------4---------------|-----7-----7----|------9----------------|
B|-----------2------------|----------------|---------10------------|
e|--------------2--2------|--------5-----5-|-------------12--------|



  Ayúdame a pagar el precio         Quiero ser digno de ti

          Bm                   D                  A
E|------------------------|----------------|-----------------------|
A|--2---------------------|----------------|--0--------------------|
D|-----4-----4--------4---|--0--------0----|-----2-----2-----------|
G|-----------------4------|-----7--------7-|--------2--------------|
B|--------2---------------|----------------|-----------------------|
e|--------------2---------|--------5-------|--------------2--------|

  Tú que estas allí en el cielo     Ayúdame a vivir

          Bm                   D                  A
E|------------------------|----------------|-----------------------|
A|--2---------------------|----------------|--0--------------------|
D|-----4------------------|--0-------------|-----2-----2-----------|
G|--------4---------------|-----7-----7----|--------2--------------|
B|-----------2------------|--------------7-|-----------------------|
e|--------------2---------|--------5-------|--------------2--------|

  Tú que pagaste por mi deuda                   Que tu Sueño

          Bm                   D                  A
E|------------------------|----------------|-----------------------|
A|--2---------------------|----------------|--0--------------------|
D|-----4------------------|--0-------------|-----2-----2-----------|
G|--------4---------------|-----7-----7----|--------2--------------|
B|-----------2------------|--------------7-|-----------------------|
e|--------------2---------|--------5-------|--------------2--------|

   viva en mí                  Que tu Sueño

          Bm                   D                  A
E|------------------------|----------------|-----------------------|
A|------------------------|----------------|-----------------------|
D|------------------------|----------------|-----------------------|
G|------------------------|-----7----------|------9----------9-----|
B|--2--3------------------|--------7-------|--10---------10--------|
e|--------2---------------|--5-------------|---------12---------12-|

viva en mí
          Bm                   D                  A
E|------------------------|----------------|-----------------------|
A|------------------------|----------------|-----------------------|
D|------------------------|----------------|-----------------------|
G|------------------------|-----7----------|-----------------------|
B|--2--3------------------|--------7-------|-----------------------|
e|--------2---------------|--5-------------|---12------------------|

y pasa al coro nuevamente




yo se que no esta exacto en las notas pero si cerca Dios les bendiga
(tambien un comentario e visto ayudas que hay en el atame que lo que
meten ni sercas esta con el canto que quieren interpretar porfas den
las notas bien o asegurense por lo menos que esten bien ya que es para
ayudarnos entre si no lo agan solo por meter su nombre en la pagina)





Esta es una transcripcion personal de un usuario de www.letrasyacordes.net - El material contenido en esta pagina es para exclusivo uso privado, quedando prohibida su reproduccion o retransmision, asi como su uso con fines comerciales.


Articulo Destacado: Mantenimiento de la Guitarra - Cuidados Generales

 

 
fuente
 
Letras y Acordes punto net, el mejor sitio para encontrar y compartir letras de canciones, con sus correspondientes acordes para guitarra y piano. Registrate en nuestro foro y enterate cómo agregar tus propias transcripciones. No te olvides de votar para calificar la calidad de las letras
Palabras utilizadas para encontrar esta página:
Alex Campos, SUEÑO DE MORIR, letra de SUEÑO DE MORIR de Alex Campos, letras, letra, acordes, canciones, letras de cancion, lyrics, cancion, grupo, banda, cantante, tablatura, partitura, tocar con guitarra, tocar con piano, tocar con bajo, armónica, teclado, bajo, ejecutar, estudiar música
Ver más canciones de :

Alex Campos


 
{c} 2007 / 2011 - letrasyacordes.net