Letras y Acordes |  Acordes |  Afinador |  IMC |  num A B C D E F G H I J K L M N O P Q R S T U V W X Y Z 
 
´╗┐
 

PRESA FACIL - Almafuerte  

Links Patrocinados / Anuncios:

una_columnados_columnasaumentar_letrareducir_letravista_scrollver_impresionver_impresion_con_acordes | votar: ++++++---- | Puntaje actual: 6.00

Links Patrocinados

Links Patrocinados

calculadora de indice de masa corporal IMC

Links Patrocinados




Diccionario de Nombres



Bueno... aca les dejo tambien Presa Facil, no es muy jodido,
lo que si, si lo quieren sacar bien, haganle todos los fils,
ah, tambien acuerdense que el solo puede tener varios errores
porq este tema lo saque con una viola acustica.
peguense una vuelta por sentir indiano, tu eres su seguridad,
del colimba..
metalero_nqn@hotmail.com
gabriel vaquer

Intro:
|-------------------------------------------------------------------|
|-------------------------------------------------------------------|
|----------5-----------------------------7--5-----------------------|
|----------5-----------------------------7--5-----------------------|
|-----2-0--3-------2----3p2---------2-0--5--3------2---3p2--5/7-5---|
|-0-3----------0-3---3------3---0-3------------0-3---3----3---------|

 De la noche del viernes...
|-------------------------------------------------------------|
|-------------------------------------------------------------|
|----------5----------------------------7--5------------------|
|----------5----------------------------7--5------------------|
|-----2-0--3------2----3p2---------2-0--5--3------2---3p2--5--|
|-0-3---------0-3---3------3---0-3------------0-3---3----3----|

 Por leales de oficio, que mi aspecto al parecer...
|-------------------------------------------------------------|
|-------------------------------------------------------------|
|----------5----------------------------7--5------------------|
|----------5----------------------------7--5------------------|
|-----2-0--3------2----3p2---------2-0--5--3------2---3p2-----|
|-0-3---------0-3---3------3---0-3------------0-3---3----2----|

 Amanzadora guacha de averiguacion...
|--------------1-----3--------------1-----3------|
|--------------1-----3--------------1-----3------|
|--------------2-----4--------------2-----4------|
|-2p0----------3-----5--------------3-----5------|
|-----2h3p2----3-----5-5-3p2-3p2----3-----5------|
|----------3--1-----3-----------3/--1-----3------|

 Otros tantos conmigo...
|-------------------------------------------------------------|
|-------------------------------------------------------------|
|----------5----------------------------7--5------------------|
|----------5----------------------------7--5------------------|
|-----2-0--3------2----3p2---------2-0--5--3------2---3p2-----|
|-0-3---------0-3---3------3---0-3------------0-3---3----2----|

(distorcion)
|------------------------------------------------|
|------------------------------------------------|
|-----------2-----------4------------2------4----|
|-----------3-----------5------------3------5----|
|/5-3-2-----3---3/5/75-5-/5-3-2------3------5----|
|-------3~--1-----------3---------3--1------3----|

 Con encerrar al rockero adolecente...
|-------------------------------------------------------------
|-------------------------------------------------------------
|-----5----------------5--------------------------------------
|-----5-----7----------5-----7-----3--------------------------
|--3--3-----7--7p5-----3-----7-----3-3-3-3-3--3-3-3-3-3-3-----
|-3-3-------5------8p5-------5-----1-1-1-1-1--1-1-1-1-1-1-----
                                     .......  ...........

 Esta en las calles...
|--------------------------------------------------------|
|--------------------------------------------------------|
|--------------------------------------------------------|
|-5-----------------------7/3-----------------------5----|
|-5-5-5-5-5--5-5-5-5-5-5--7/3-3-3-3-3--3-3-3-3-3-3--5----|
|-3-3-3-3-3--3-3-3-3-3-3--5/1-1-1-1-1--1-1-1-1-1-1--3----|
    .......  ...........      .......  ...........

 (Distorcion al palo) Cuando llenar el jaulos se les ordene...
|---------------------------------------------|
|---------------------------------------------|
|-5--------2-------------------5-----2--------|
|-5---(*)--2-------------------5-----2--------|
|-3--------0--/7-5-5-3-3---3---3-----0--------|
|-3----------------------3---3----------------|

 Para escracharlo en el libraco mal parido...
|--------------------------------------------------------|
|--------------------------------------------------------|
|--------------------------------------------------------|
|-3-----------------------5-----------------------7------|
|-3-3-3-3-3--3-3-3-3-3-3--5-5-5-5-5--5-5-5-5-5-5--7------|
|-1-1-1-1-1--1-1-1-1-1-1--3-3-3-3-3--3-3-3-3-3-3--5------|
    .......  ...........    .......  ...........

 Certificando asi...
|---------------------------------|
|---------------------------------|
|---------------------------------|
|-3-----------------------5-------|
|-3-3-3-3-3--3-3-3-3-3-3--5-------|
|-1-1-1-1-1--1-1-1-1-1-1--3-------|
    ......   ...........

 Aunque inocente es...
|------------------------------------------------------|
|------------------------------------------------------|
|-5--9--2-------------------------5--9--2--------------|
|-5--9--2--5-2-5--5--5-2-5--3--5--5--9--2--5-2-5--5----|
|-3--7--0--3-0-3--5--3-0-3--3--5--3--7--0--3-0-3--5----|
|-----------------3---------1--3------------------3----|

Solo
|------------------------------------------------------------------------
|---13------17-13-15-13p12h13--------------------------------------------
/12-14-14h16-----------------12-12(14)-12p11p9---------------------------
|---------------------------------------------12p10p9p7------------------
|------------------------------------------------------10p8p7------------
|------------------------------------------------------------10p8p7-5h7p5

|-10(12)-12h13h15p13-12h13p9--12-9h10-7h9-5-----|
|-----------------------------------------------|
|-----------------------------------------------|
|-----------------------------------------------|
|-----------------------------------------------|
|-----------------------------------------------|

|--------------------------------------------------------15p13p12--17(19)
|---------12-13*/------------------------------15p13p12----------15------
|10-10-12--------12p11-----14p12p11--16p14p12----------14----------------
|---------------------14p12--------14--------16--------------------------
|------------------------------------------------------------------------
|------------------------------------------------------------------------

|-------------------20(22)-20-17-15-13-12---------------/15--|
|-----------12-13-------------------------15-13-12-----------|
|-/10-10-12----------------------------------------14-12-----|
|------------------------------------------------------------|
|------------------------------------------------------------|
|------------------------------------------------------------|

 Con encerrar al rockero adolecente...
|-------------------------------------------------------------
|-------------------------------------------------------------
|-----5----------------5--------------------------------------
|-----5-----7----------5-----7-----3--------------------------
|--3--3-----7--7p5-----3-----7-----3-3-3-3-3--3-3-3-3-3-3-----
|-3-3-------5------8p5-------5-----1-1-1-1-1--1-1-1-1-1-1-----
                                     .......  ...........
 No calza ca├▒o...
|--------------------------------------------------------|
|--------------------------------------------------------|
|--------------------------------------------------------|
|-5-----------------------7/3-----------------------5----|
|-5-5-5-5-5--5-5-5-5-5-5--7/3-3-3-3-3--3-3-3-3-3-3--5----|
|-3-3-3-3-3--3-3-3-3-3-3--5/1-1-1-1-1--1-1-1-1-1-1--3----|
    .......  ...........      .......  ...........

Cuando llenar el jaulon se les ordene
|-------------------------------------|
|-------------------------------------|
|-5---------------2-------------------|
|-5-5-5-5--5-5-5--2-2-2-2--2-2-2------|
|-3-3-3-3--3-3-3--0-0-0-3--0-3-0------|
|-------------------------------------|

 No es de extra├▒ar que al metalero se lleven...
|-------------------------------------|
|-------------------------------------|
|-5---------------2-------------------|
|-5-5-5-5--5-5-5--2-2-2-2--2-2-2------|
|-3-3-3-3--3-3-3--0-0-0-3--0-3-0------|
|-------------------------------------|

Para escracharlo en el libraco mal parido...
|----------------------------------------------------
|----------------------------------------------------
|----------------------------------------------------
|-3-----------------------5-----------------------7--
|-3-3-3-3-3--3-3-3-3-3-3--5-5-5-5-5--5-5-5-5-5-5--7--
|-1-1-1-1-1--1-1-1-1-1-1--3-3-3-3-3--3-3-3-3-3-3--5--
    .......  ...........    .......  ...........

Certificando asi, que hubo detenidos...
|----------------------------------
|----------------------------------
|----------------------------------
|-3-----------------------5--------
|-3-3-3-3-3--3-3-3-3-3-3--5--------
|-1-1-1-1-1--1-1-1-1-1-1--3--------
    .......  ...........


 Aunque inocente es...
|------------------------------------------------------------
|------------------------------------------------------------
|-5--9--2-------------------------5--9--14-------------------
|-5--9--2--5-2-5--5--5-2-5--3--5--5--9--14-5-2-5--5-5-2-5-3-5
|-3--7--0--3-0-3--5--3-0-3--3--5--3--7--12-3-0-3--5-3-0-3-3-5
|-----------------3---------1--3------------------3-------1-3

 Aunque inocente es...
|-------------------------------------------------------------|
|-------------------------------------------------------------|
|-5--9--2-------------------------5--9--2---------------------|
|-5--9--2--5-2-5--5--5-2-5--3--5--5--9--2--5-2-5--5---3~--7/--|
|-3--7--0--3-0-3--5--3-0-3--3--5--3--7--0--3-0-3--5---3~--7/--|
|-----------------3---------1--3------------------3---1~--5/--|

Fleco, gil de mierda me debes $150 :p jaja, todo bien
pero mas vale que me los pagues!





Esta es una transcripcion personal de un usuario de www.letrasyacordes.net - El material contenido en esta pagina es para exclusivo uso privado, quedando prohibida su reproduccion o retransmision, asi como su uso con fines comerciales.


Letras y Acordes punto net, el mejor sitio para encontrar y compartir letras de canciones, con sus correspondientes acordes para guitarra y piano. No te olvides de votar para calificar la calidad de las letras
Palabras utilizadas para encontrar esta página:
Almafuerte, PRESA FACIL, letra y acordes de PRESA FACIL de Almafuerte, canciones de Almafuerte, tocar con guitarra PRESA FACIL, tocar con piano PRESA FACIL, estudiar m├║sica
Ver más canciones de :

Almafuerte


 
{c} 2016 - letrasyacordes.net