Letras y Acordes |  Acordes |  musica y amigos |  Afinador | 
 
num  A  B  C  D  E  F  G  H  I  J  K  L  M  N  O  P  Q  R  S  T  U  V  W  X  Y  Z  

 

Condenados a vivir - Angeles del Infierno  

Links Patrocinados / Anuncios:

una_columnados_columnasaumentar_letrareducir_letravista_scrollver_impresionver_impresion_con_acordes | votar: ++++++---- | Puntaje actual: 6.00

Links Patrocinados

Links Patrocinados

calculadora de indice de masa corporal IMC

Links Patrocinados




Diccionario de Nombres



INTRO.....
1--------------------------------------------------------------
2--------------------------------------------------------------
3------7/10--7~------------------------------------------------
4-9~------------10-9-7-----------------------------------------
5-7~-------------------10-8-7----------------------------------
6---------------------------10-9--7br(9)~~~~----9\12/0---------

Riff A
_______x calculenle, con el verso
1-----------------|--------------------------
2-----------------|--------------------------
3-----------------|--------------------------
4-7/-999-999-999--|--------------------------
5-5/-777-777-777--|--------------------------
6-----------------|--------------------------

Riff B
1-------------------------------------------
2-------------------------------------------
3-------------------------------------------
4-7~-/-5~-555-555-555--5~-555---------------
5-5~-/-3~-333-333-333--7~-777---------------
6-------------------------------------------

Chorus
____________________________x3
1----------------------------|---------------------
2----------------------------|---------------------
3----------------------------|------------2~-------
4-9~---7~---7-5--------------|--5~---4~---2~-------
5-7~---5~-------7-5----------|--3~---2~---0~-------
6-------------------7br~~~---|---------------------

Solo 1
1---------------------------------------------------|-----------------
2------------11\0----\9--9-9-9-9------7b9~----------|-\9--9-9-9-9-----
3------------12\0----\10-10101010p7--------10-10-10-|-\10-10101010----
4---------------------------------------------------|-----------------
5---------------------------------------------------|-----------------
6-3br~~~~-------------------------------------------|-----------------

1------------------------------------------ah.ah.ah.ah.ah.--|----
2----------7-9b-----------\(11)-11111111---10-10-10-10-10---|----
3------7-9------10-10-10--\(13)-13131313--------------------|----
4-9-10------------------------------------------------------|----
5-----------------------------------------------------------|----
6-----------------------------------------------------------|----

1---------------------------------------|------------------------------------
2---------------------------------------|------------------------------------
3-12-11-9----9--------------------------|-------------------------10-11-12---
4---------12----12-11-9-----9-(11)br~~~-|----------------9-10-12-------------
5------------------------12-------------|-9\\0~--9-11-12---------------------
6---------------------------------------|------------------------------------

1----ah.--|-8\--(10)br-hold bend-10b-10b-10b-----8\--(10)br--10b-10b---ah.--10b-10-10~~--
2-10-12---|-10\-(12)br-----------12b-12b-12b-----10\-(12)br--12----12b-(12)-12b----12~~--
3---------|------------------------------------------------------------------------------
4---------|------------------------------------------------------------------------------
5---------|------------------------------------------------------------------------------
6---------|------------------------------------------------------------------------------

                              ah.
1-8\--(10)b-10-11-11-11-11b12-10--ah.ah.------ah.-ah.----ah.---------------
2-10\-(12)b-12-13-13-13-----------12-10--ah.--10--12--12p10--(13)br~-------
3----------------------------------------11--------------------------------
4--------------------------------------------------------------------------
5--------------------------------------------------------------------------
6--------------------------------------------------------------------------

            ah.ah.
1-9------7b-8b-10b---10p8p7------------------------------------------------------
2-8b-10b---------------------(10)br~---10--9--7b-----------(70br~~~----/////0~---
3--------------------------------------------------10b-9br~----------------------
4--------------------------------------------------------------------------------
5--------------------------------------------------------------------------------
6--------------------------------------------------------------------------------


Solo2
1--------------------------------------------------------------------------------
2--------------------------------10h12p10-10h13p10p10h13p10-10h12p10--10h12p13~--
3-------10h12p10-10h13p10-12p10--------------------------------------------------
4-9h12---------------------------------------------------------------------------
5--------------------------------------------------------------------------------
6--------------------------------------------------------------------------------

1-10h13p10-10h13p10------10h12p10-10h13p10---10h12p10h13p12p10-10h13p12----------
2-------------------13~--------------------13---------------------------13-------
3--------------------------------------------------------------------------------
4--------------------------------------------------------------------------------
5--------------------------------------------------------------------------------
6--------------------------------------------------------------------------------

1-10p13-10p12-10p11-10p13-10p11-10p12-10p12--------------ah.---------------------
2--------------------------------------------13--(12)b~--12--10b-9b------10p9----
3-------------------------------------------------------------------(12)---------
4--------------------------------------------------------------------------------
5--------------------------------------------------------------------------------
6--------------------------------------------------------------------------------

1-------------------------------------------------------------------------------
2-------------------------------------------------------------------------------
3-10h12p10--9h10p9-9h10p9-9h10p9--------------9b10h12p10p9----------------------
4------------------------------------9-10-12----------------12-11-9~------------
5--------------------------------12---------------------------------------------
6-------------------------------------------------------------------------------

1--------------------------------------
2--------------------------------------
3--------------------------------------
4-----------9--------------------------
5-12-10-9/-(7)b~~~~~~~------end.......-
6--------------------------------------

Outro
1-------------------------------------------------
2-------------------------------------------------
3-----------------2~----------------9~------------
4--6~---5~---4~---2~----------------9~------------
5--4~---3~---2~---0~----------------7~------------
6------------------------9\12/0-------------------


Letras;

En la ??????? ?????? te incinua,
No me des cosas que nunca mencionas,
Controlais con cualquier situacion,
Y con dinero todo se ha reglara,
Amenasais contra la destruccion,
Y al mismo tiempo lo sabrais de paz,
Oh si sacais de cualquier color,
Te va asustar, lo importante es ganar,
Dinero y ganas de poder.

Enganais,
Controlais,
Amenasais,
Condenais, ha vivir.

Castigais sin pena y piedad,
Y si le va usted car pagarais,
Condenais la imaginacion,
Solo vosotros pensais por los de mas,
Si al cobrarme obseden piedad,
Falsas promesas todo lo cargaran,
Oh si tratais de cualquier color,
Te va asustar, lo importante es ganar,
Dinero y ganas de poder.


Enganais,
Controlais,
Amenasais,
Condenais, ha vivir.

Solo 1


Enganais,
Controlais,
Amenasais,
Condenais,

Enganais,
Controlais,
Amenasais,
Condenais, ha vivir.

Solo 2

Ahhhohhhhhhahhhhhhh ...............

______________________________________________________________________________
Pues esa es toda la rola. Hay nomas sigan la progression me dio
gueva acomodarla pero
esta bien facil seguir orale perros.
Espero que les guste y que se oiga mas o menos.
Solo recuerden que 'The Metal Fucking Rules'.............
Saludos desde Los Angeles CA.  Diganme sus preguntas o reacciones
de las rolas que saco.
Edgar Corona: Mandenme sus peticiones culeros, yo se las saco
de cualquier banda
de metal nada de pop o rap puro metal.
Comunicarse con el 'Metal God' at;
www.edcarnage@hotmail.com





Esta es una transcripcion personal de un usuario de www.letrasyacordes.net - El material contenido en esta pagina es para exclusivo uso privado, quedando prohibida su reproduccion o retransmision, asi como su uso con fines comerciales.


Articulo Destacado: Mantenimiento de la Guitarra - Cuidados Generales

 

 
fuente
 
Letras y Acordes punto net, el mejor sitio para encontrar y compartir letras de canciones, con sus correspondientes acordes para guitarra y piano. Registrate en nuestro foro y enterate cómo agregar tus propias transcripciones. No te olvides de votar para calificar la calidad de las letras
Palabras utilizadas para encontrar esta página:
Angeles del Infierno, Condenados a vivir, letra de Condenados a vivir de Angeles del Infierno, letras, letra, acordes, canciones, letras de cancion, lyrics, cancion, grupo, banda, cantante, tablatura, partitura, tocar con guitarra, tocar con piano, tocar con bajo, armónica, teclado, bajo, ejecutar, estudiar música
Ver más canciones de :

Angeles del Infierno


 
{c} 2007 / 2011 - letrasyacordes.net