Letras y Acordes |  Acordes |  Afinador |  IMC |  num A B C D E F G H I J K L M N O P Q R S T U V W X Y Z 
 

 

Una aventura - Antonio Aguilar  

Links Patrocinados / Anuncios:

una_columnados_columnasaumentar_letrareducir_letravista_scrollver_impresionver_impresion_con_acordes | votar: +++++++--- | Puntaje actual: 7.50

Links Patrocinados

Links Patrocinados

calculadora de indice de masa corporal IMC

Links Patrocinados




Diccionario de Nombres





G--9-9-----------------------------
B------10-9-12-10-10-10-10-9-12-10-
e----------------------------------

G--9-9-----------------------------
B------10--------------------------
e---------9-14-14-14-12-10-9-7-----


G----------------------------------
B----------------------------------
e--9-9-12-10-14-12-12-12-12-10-14-12


G----------------------------------
B----------------------------------
e--9-9-12-16-19-19-19-17-16-14-12--



la cagan perrines, si quieren otra rola
ya saben a donde acudir atte el temerario mayor





Esta es una transcripcion personal de un usuario de www.letrasyacordes.net - El material contenido en esta pagina es para exclusivo uso privado, quedando prohibida su reproduccion o retransmision, asi como su uso con fines comerciales.


Letras y Acordes punto net, el mejor sitio para encontrar y compartir letras de canciones, con sus correspondientes acordes para guitarra y piano. No te olvides de votar para calificar la calidad de las letras
Palabras utilizadas para encontrar esta página:
Antonio Aguilar, Una aventura, letra y acordes de Una aventura de Antonio Aguilar, canciones de Antonio Aguilar, tocar con guitarra Una aventura, tocar con piano Una aventura, estudiar música
Ver más canciones de :

Antonio Aguilar


 
{c} 2016 - letrasyacordes.net