Letras y Acordes |  Acordes |  Afinador |  IMC |  num A B C D E F G H I J K L M N O P Q R S T U V W X Y Z 
 

 

SUELES DEJARME SOLO - Soda Stereo  

Links Patrocinados / Anuncios:

una_columnados_columnasaumentar_letrareducir_letravista_scrollver_impresionver_impresion_con_acordes | votar: ++++------ | Puntaje actual: 4.00

Links Patrocinados

Links Patrocinados

calculadora de indice de masa corporal IMC

Links Patrocinados




Diccionario de Nombres

Esta es mi primera colaboracion, les paso el TAB que hace al final del
tema. Un poquito de Crunch y va como trompada.

E/--------------------------------------------------------------------|
B/--------------------------------------------------------------------|
G/--------------12--------------14--------------12-11-----------------|
D/---14---12-14----14----12--14----14---12--14--------14--12----------|
A/------------------------------------------------------------14------|
E/--------------------------------------------------------------------|

y sueles dejarme....solo


E/--------------------------------------------------------------------|
B/--------------------------------------------------------------------|
G/--------------12--------------14--------------12-11-----------------|
D/---14---12-14----14----12--14----14---12--14--------14--12----------|
A/------------------------------------------------------------14------|
E/--------------------------------------------------------------------|

y sueles dejarme....solo

E/--------------------------------------------------------------------|
B/--------------------------------------------------------------------|
G/--------------12--------------14--------------12-14--12/0-----------|
D/---14---12-14----14----12--14----14---12--14------------------------|
A/--------------------------------------------------------------------|
E/--------------------------------------------------------------------|

Espero que les sirva, saludos....diegone




Esta es una transcripcion personal de un usuario de www.letrasyacordes.net - El material contenido en esta pagina es para exclusivo uso privado, quedando prohibida su reproduccion o retransmision, asi como su uso con fines comerciales.


Letras y Acordes punto net, el mejor sitio para encontrar y compartir letras de canciones, con sus correspondientes acordes para guitarra y piano. No te olvides de votar para calificar la calidad de las letras
Palabras utilizadas para encontrar esta página:
Soda Stereo, SUELES DEJARME SOLO, letra y acordes de SUELES DEJARME SOLO de Soda Stereo, canciones de Soda Stereo, tocar con guitarra SUELES DEJARME SOLO, tocar con piano SUELES DEJARME SOLO, estudiar música
Ver más canciones de :

Soda Stereo


 
{c} 2016 - letrasyacordes.net