Letras y Acordes |  Acordes |  musica y amigos |  Afinador | 
 
num  A  B  C  D  E  F  G  H  I  J  K  L  M  N  O  P  Q  R  S  T  U  V  W  X  Y  Z  

 

FUEGO - Intoxicados  

Links Patrocinados / Anuncios:

Links Patrocinados / Anuncios:

musica y amigos
una_columnados_columnasaumentar_letrareducir_letravista_scrollver_impresionver_impresion_con_acordes | votar: +++++++--- | Puntaje actual: 7.50

Links Patrocinados

Links Patrocinados

calculadora de indice de masa corporal IMC

Links Patrocinados




Diccionario de Nombres

Todo esto es lo que hace la segunda guitarra (la de felipe barroso),
arriba puse las notas que haria la guitarra acustica (la de pity),
la letra que aparece es para guiar que parte de la cancion es,
es una cancion muy buena y facil, cualquier duda envienme un mail
a mauro_18_b@hotmail.com.

RE     LA     SOL    LA           RE
E||------|------|------|------|--------------------|
B||------|------|------|------|--7--------------8--|
G||------|------|------|------|--------------------|
D||------|------|------|------|--------------------|
A||------|------|------|------|--------------------|
E||------|------|------|------|--------------------|

       LA                    SOL                LA
--------------------|-------------------|------------------|
--5~-------------7--|--3~---------------|------------------|
--------------------|-------------------|------------------|
--------------------|-------------------|------------------|
--------------------|-------------------|------------------|
--------------------|-------------------|------------------|

          RE                                      LA
---------------------------------|---------------------------------|
--15/14---14/12---12/10---10/7---|--15/14---14/12---12/10---10/7---|
---------------------------------|---------------------------------|
--12/11---11/9-----9/7-----7/4---|--12/11---11/9-----9/7-----7/4---|
---------------------------------|---------------------------------|
---------------------------------|---------------------------------|

             SOL                              LA
---------------------------------|---------------------------------|
--15/14---14/12---12/10---10/7---|--7/8---7/8---7/8---10-----------|
---------------------------------|---------------------------------|
--12/11---11/9-----9/7-----7/4---|--4/5---4/5---4/5----7-----------|
---------------------------------|---------------------------------|
---------------------------------|---------------------------------|

              RE                              LA
---------------------------------|---------------------------------|
--15/14---14/12---12/10---10/7---|--15/14---14/12---12/10---10/7---|
---------------------------------|---------------------------------|
--12/11---11/9-----9/7-----7/4---|--12/11---11/9-----9/7-----7/4---|
---------------------------------|---------------------------------|
---------------------------------|---------------------------------|

        SOL                      LA
------------------------|----------------------|
--7/8--7/8---10---------|--7/8--7----5---------|
------------------------|----------------------|
--4/5--4/5----7---------|--4/5--4----2---------|
------------------------|----------------------|
------------------------|----------------------|

RE   “Esta vez es          LA           SOL     LA    RE  “Se que muchas
-------------------|------------------|------|------|--5----------------|
--3----------------|------------------|------|------|--7----------------|
-------------------|------------------|------|------|--7----------------|
--0----------------|------------------|------|------|-------------------|
-------------------|------------------|------|------|-------------------|
-------------------|------------------|------|------|-------------------|

        LA                SOL                  LA
--5----------------|--7----------------|--9-----------------|
--5----------------|--8----------------|--10----------------|
--6----------------|--7----------------|--9-----------------|
-------------------|-------------------|--------------------|
-------------------|-------------------|--------------------|
-------------------|-------------------|--------------------|

RE  “Se prende fuego       LA                   SOL
--5----------------|--5----------------|--7----------------|
--7----------------|--5----------------|--8----------------|
--7----------------|--6----------------|--7----------------|
-------------------|-------------------|-------------------|
-------------------|-------------------|-------------------|
-------------------|-------------------|-------------------|

       LA            RE  “Puede ser que          Mim
--9-----------------|--10----------------|--12----------------|
--10----------------|--10----------------|--12----------------|
--9-----------------|--11----------------|--12----------------|
--------------------|--------------------|--------------------|
--------------------|--------------------|--------------------|
--------------------|--------------------|--------------------|

       SOL                   LA
--7----------------|--9-----------------|
--8----------------|--10----------------|
--7----------------|--9-----------------|
-------------------|--------------------|
-------------------|--------------------|
-------------------|--------------------|

          RE                                      LA
---------------------------------|---------------------------------|
--15/14---14/12---12/10---10/7---|--15/14---14/12---12/10---10/7---|
---------------------------------|---------------------------------|
--12/11---11/9-----9/7-----7/4---|--12/11---11/9-----9/7-----7/4---|
---------------------------------|---------------------------------|
---------------------------------|---------------------------------|

             SOL                              LA
---------------------------------|---------------------------------|
--7/8---7/8---10-----------------|--7/8--7----5--------------------|
---------------------------------|---------------------------------|
--4/5---4/5----7-----------------|--4/5--4----2--------------------|
---------------------------------|---------------------------------|
---------------------------------|---------------------------------|

              RE                              LA
---------------------------------|---------------------------------|
--15/14---14/12---12/10---10/7---|--15/14---14/12---12/10---10/7---|
---------------------------------|---------------------------------|
--12/11---11/9-----9/7-----7/4---|--12/11---11/9-----9/7-----7/4---|
---------------------------------|---------------------------------|
---------------------------------|---------------------------------|

        SOL                      LA
------------------------|----------------------|
--7/8--7/8---10---------|--7/8--7----5---------|
------------------------|----------------------|
--4/5--4/5----7---------|--4/5--4----2---------|
------------------------|----------------------|
------------------------|----------------------|

RE “Esta vez es en        LA            SOL    LA
-------------------|------------------|------|-----|
--3----------------|------------------|------|-----|
-------------------|------------------|------|-----|
--0----------------|------------------|------|-----|
-------------------|------------------|------|-----|
-------------------|------------------|------|-----|

RE “Se que muchas     LA                  SOL
--5----------------|--5----------------|--7----------------|
--7----------------|--5----------------|--8----------------|
--7----------------|--6----------------|--7----------------|
-------------------|-------------------|-------------------|
-------------------|-------------------|-------------------|
-------------------|-------------------|-------------------|

 LA                  RE “Se prende fuego   LA
--9-----------------|--5----------------|--5----------------|
--10----------------|--7----------------|--5----------------|
--9-----------------|--7----------------|--6----------------|
--------------------|-------------------|-------------------|
--------------------|-------------------|-------------------|
--------------------|-------------------|-------------------|

 SOL                 LA                  RE “Puede ser que otra vez
--7----------------|--9-----------------|--10----------------|
--8----------------|--10----------------|--11----------------|
--7----------------|--9-----------------|--11----------------|
-------------------|--------------------|--------------------|
-------------------|--------------------|--------------------|
-------------------|--------------------|--------------------|

MIm                   SOL                  LA
--12----------------|--7----------------|--9-----------------|
--12----------------|--8----------------|--10----------------|
--12----------------|--7----------------|--9-----------------|
--------------------|-------------------|--------------------|
--------------------|-------------------|--------------------|
--------------------|-------------------|--------------------|

Solo:

 RE                     LA                    SOL
---------------------|---------------------|-------------------|
--7------------8/-7--|--5------------7/-5--|--3----------------|
---------------------|---------------------|-------------------|
---------------------|---------------------|-------------------|
---------------------|---------------------|-------------------|
---------------------|---------------------|-------------------|

 LA                  RE
-------------------|------------------------|
-------------------|------------3-----------|
-------------------|------2--4--------------|
----------------2--|--2/4----------------2--|
-------------------|------------------------|
-------------------|------------------------|

 LA                           SOL
--------------------------|---------------------|
------------3----5--3--5r-|------3--3-----------|
------2--4----------------|------------------2--|
--2/4---------------------|---------------------|
--------------------------|---------------------|
--------------------------|---------------------|

LA                       SIm “Dame un balde  MIm   SOL     LA
------------------------|-----------|------------|------|------|
------------------------|-----------|------------|------|------|
--2/4-2----2/4-2--------|-----------|------------|------|------|
------------------------|-----------|------------|------|------|
------------------------|-----------|------------|------|------|
------------------------|-----------|------------|------|------|

FA#m“El incendio      Mim
-------------------|------------|
-------------------|------------|
-------------------|------------|
-------------------|------------|
-------------------|------------|
-------------------|------------|

 SOL     LA   RE “Se prende fuego   LA
------|------|--5----------------|--5----------------|
------|------|--7----------------|--5----------------|
------|------|--7----------------|--6----------------|
------|------|-------------------|-------------------|
------|------|-------------------|-------------------|
------|------|-------------------|-------------------|

 SOL                  LA                 RE “Puede ser que otra
--7----------------|--9-----------------|--10----------------|
--8----------------|--10----------------|--11----------------|
--7----------------|--9-----------------|--11----------------|
-------------------|--------------------|--------------------|
-------------------|--------------------|--------------------|
-------------------|--------------------|--------------------|

  MIm                 SOL                  LA
--12----------------|--7----------------|--9-----------------|
--12----------------|--8----------------|--10----------------|
--12----------------|--7----------------|--9-----------------|
--------------------|-------------------|--------------------|
--------------------|-------------------|--------------------|
--------------------|-------------------|--------------------|

 RE “Fuego, fuego    LA                   SOL
------------------|------------------|---------------------|
------------------|------------------|--------5r---3--3~---|
------------------|------------------|---------------------|
------------------|------------------|---------------------|
------------------|------------------|---------------------|
------------------|------------------|---------------------|

   LA              RE “Fuego, fuego, fuego    LA
------------------|------------------------|---------------------|
------------------|------------------------|---------------------|
------------------|------4--6--7--7--7--7--|----6--4--2----------|
------------------|------------------------|---------------------|
------------------|------------------------|---------------------|
------------------|------------------------|---------------------|

  SOL                      LA
-------------------------|--------------------------|
-------------------------|--------------------------|
------------6--7--9--11--|--11--9------11--9--------|
------7--9---------------|---------12---------------|
-------------------------|--------------------------|
-------------------------|--------------------------|

RE “Estamos enfermos, fuego, fuego   LA
-------------------------------|-------------------------------|
-------------------------------|-------------------------------|
--9----------9----------9------|--9----------9----------9------|
-----12---------12---------12--|-----12---------12---------12--|
---------12---------12---------|---------12---------12---------|
-------------------------------|-------------------------------|

 SOL                               LA
-------------------------------|-------------------------------|
-------------------------------|-------------------------------|
--9----------9----------9------|--9----------9----------9------|
-----12---------12---------12--|-----12---------12---------12--|
---------12---------12---------|---------12---------12---------|
-------------------------------|-------------------------------|

RE “Estamos enfermos, fuego, fuego  LA
-------------------------------|-------------------------------|
-------------------------------|-------------------------------|
--9----------9----------9------|--9----------9----------9------|
-----12---------12---------12--|-----12---------12---------12--|
---------12---------12---------|---------12---------12---------|
-------------------------------|-------------------------------|

 SOL                              LA
-------------------------------|------------------------------|
-------------------------------|------------------------------|
--9----------9----------9------|--11----------11----12----11~-|
-----12---------12---------12--|------12----------------------|
---------12---------12---------|----------12------------------|
-------------------------------|------------------------------|

RE “Fuego, fuego, fuego    LA                 SOL
------------------|--------------------|-------------------|
------------------|--------------10r---|-------------------|
------------------|--------------------|--7~---------------|
------------------|--------------------|-------------------|
------------------|--------------------|-------------------|
------------------|--------------------|-------------------|

  LA                   RE “Fuego, fuego, fuego   LA
----------------------|-------------------|------------------|
--8--------10----8----|--7~---------------|------------------|
----------------------|-------------------|------------------|
----------------------|-------------------|------------------|
----------------------|-------------------|------------------|
----------------------|-------------------|------------------|

  SOL                   LA            RE “Estamos enfermos, perdonennos
------------------|------------------|-------------------------------|
------------------|------------------|-------------------------------|
------------------|------------------|--9----------9----------9------|
------------------|------------------|-----12---------12---------12--|
------------------|------------------|---------12---------12---------|
------------------|------------------|-------------------------------|

 LA                              SOL
-------------------------------|-------------------------------|
-------------------------------|-------------------------------|
--9----------9----------9------|--9----------9----------9------|
-----12---------12---------12--|-----12---------12---------12--|
---------12---------12---------|---------12---------12---------|
-------------------------------|-------------------------------|

LA                              RE “Estamos enfermos, perdonennos
-------------------------------|-------------------------------|
-------------------------------|-------------------------------|
--9----------9----------9------|--9----------9----------9------|
-----12---------12---------12--|-----12---------12---------12--|
---------12---------12---------|---------12---------12---------|
-------------------------------|-------------------------------|

LA                              SOL
-------------------------------|-------------------------------|
-------------------------------|-------------------------------|
--9----------9----------9------|--9----------9----------9------|
-----12---------12---------12--|-----12---------12---------12--|
---------12---------12---------|---------12---------12---------|
-------------------------------|-------------------------------|

LA                             RE “Fuego, fuego    LA
------------------------------|------------------|------------------|
------------------------------|------------------|------------------|
--11----------11----12----11~-|------------------|------------------|
------12----------------------|------------------|------------------|
----------12------------------|------------------|------------------|
------------------------------|------------------|------------------|

SOL                      LA                 RE “Fuego, fuego, fuego
--------12r---10--10~---|------------------|------------------|
------------------------|------------------|------------------|
------------------------|------------------|------------------|
------------------------|------------------|------------------|
------------------------|------------------|------------------|
------------------------|------------------|------------------|

LA                         SOL                LA
----------17--------------|------------------|------------------|
----17b-------17r---15~---|------------------|------------------|
--------------------------|------------------|------------------|
--------------------------|------------------|------------------|
--------------------------|------------------|------------------|
--------------------------|------------------|------------------|

RE “Estamos enfermos, fuego       LA
-------------------------------|-------------------------------|
-------------------------------|-------------------------------|
--9----------9----------9------|--9----------9----------9------|
-----12---------12---------12--|-----12---------12---------12--|
---------12---------12---------|---------12---------12---------|
-------------------------------|-------------------------------|

 SOL                             LA
-------------------------------|-------------------------------|
-------------------------------|-------------------------------|
--9----------9----------9------|--9----------9----------9------|
-----12---------12---------12--|-----12---------12---------12--|
---------12---------12---------|---------12---------12---------|
-------------------------------|-------------------------------|

RE “Estamos enfermos, fuego       LA
-------------------------------|-------------------------------|
-------------------------------|-------------------------------|
--9----------9----------9------|--9----------9----------9------|
-----12---------12---------12--|-----12---------12---------12--|
---------12---------12---------|---------12---------12---------|
-------------------------------|-------------------------------|

SOL                              LA
-------------------------------|------------------------------||
-------------------------------|------------------------------||
--9----------9----------9------|--11----------11----12----11~-||
-----12---------12---------12--|------12----------------------||
---------12---------12---------|----------12------------------||
-------------------------------|------------------------------||

YO VIVO EN OTRO PLANETA, Y TENGO MI PROPIA RELIGION,
PORQUE SOY UN INTOXICADO DE CORAZON!!!!!!!!!!!




Esta es una transcripcion personal de un usuario de www.letrasyacordes.net - El material contenido en esta pagina es para exclusivo uso privado, quedando prohibida su reproduccion o retransmision, asi como su uso con fines comerciales.
Poné el link en tu página o en foros!!!!
Para MySpace:
Para Foros:
musica y amigos
Compartí con tus amigos esta canción en tu Facebook
Articulo Destacado: Mantenimiento de la Guitarra - Cuidados Generales

 

 
fuente
 
Letras y Acordes punto net, el mejor sitio para encontrar y compartir letras de canciones, con sus correspondientes acordes para guitarra y piano. Registrate en nuestro foro y enterate cómo agregar tus propias transcripciones. No te olvides de votar para calificar la calidad de las letras
Palabras utilizadas para encontrar esta página:
Intoxicados, FUEGO, letra de FUEGO de Intoxicados, letras, letra, acordes, canciones, letras de cancion, lyrics, cancion, grupo, banda, cantante, tablatura, partitura, tocar con guitarra, tocar con piano, tocar con bajo, armónica, teclado, bajo, ejecutar, estudiar música
Ver más canciones de :

Intoxicados


 
{c} 2007 / 2011 - letrasyacordes.net