Letras y Acordes |  Acordes |  Afinador |  IMC |  num A B C D E F G H I J K L M N O P Q R S T U V W X Y Z 
 

 

Y SIN EMBARGO - Joaquín Sabina  

Links Patrocinados / Anuncios:

una_columnados_columnasaumentar_letrareducir_letravista_scrollver_impresionver_impresion_con_acordes | votar: +++++----- | Puntaje actual: 5.25

Links Patrocinados

Links Patrocinados

calculadora de indice de masa corporal IMC

Links Patrocinados




Diccionario de Nombres

Estas notas las hace el bajo
E||-------------------------|---------------------------|
B||-------------------------|--10h12----8----10p7-------|
G||-------------------------|----------------------7----|
D||-------------------------|---------------------------|
A||-------------------------|---------------------------|
E||--7------10---10/12------|---------------------------|

-----------------|-----------------|------------------|
-----------------|-----------------|------------------|
------7----9-9---|--9p7----9h11----|--9p7-------------|
----9------------|-----------------|---------9--------|
-----------------|-----------------|------------------|
-----------------|-----------------|------------------|

--------------------|--10h12----10------|--5/7--5----5h7----||
--10h12----8--------|-------------------|-------------------||
--------------------|-------------------|-------------------||
--------------------|-------------------|-------------------||
--------------------|-------------------|-------------------||
--------------------|-------------------|-------------------||

La saque con la version en vivo del CD 'Nos sobran los motivos'
Las primeras tres notas del bajo se pueden reemplazar por las
siguientes notas para conseguir el sonido parecido
a la version de estudio:

E||-------------------------|
B||-0--3--3/5---------------|
G||-0--2--2/4---------------|
D||-------------------------|
A||-------------------------|
E||-------------------------|

Aunque no se si el resto del punteo es igual...

__________________________________________

El punteo luego del primer estribillo sería algo así:

E||-----------------------------|------------------------|
B||-----------------------------|--13----10----8---------|
G||--8/12----12-12----12--12~---|-------------------9----|
D||-----------------------------|------------------------|
A||-----------------------------|------------------------|
E||-----------------------------|------------------------|

---------------------------|------------------------|
---------------------------|--12/13/12--------------|
--12-----12----------------|------------------------|
--12--12----12-------------|------------------------|
---------------------------|------------------------|
---------------------------|------------------------|

--10--10p8--10p8----------|----------------------------|
--------------------------|--7--7--7--7--7/10/7-6/5----|
--------------------------|--7--7--7-------------------|
--------------------------|--7--7--7-------------------|
--------------------------|----------------------------|
--------------------------|----------------------------|

-------------------||
-------------------||
-------------------||
--7p5--3/4-5p3-----||
---------------2p0-||
-------------------||

Este sí lo saqué de la versión de estudio, porque en
vivo no era tan claro el sonido.
Tiene algunos errores, pero la idea básica está.




Esta es una transcripcion personal de un usuario de www.letrasyacordes.net - El material contenido en esta pagina es para exclusivo uso privado, quedando prohibida su reproduccion o retransmision, asi como su uso con fines comerciales.


Letras y Acordes punto net, el mejor sitio para encontrar y compartir letras de canciones, con sus correspondientes acordes para guitarra y piano. No te olvides de votar para calificar la calidad de las letras
Palabras utilizadas para encontrar esta página:
Joaquín Sabina, Y SIN EMBARGO, letra y acordes de Y SIN EMBARGO de Joaquín Sabina, canciones de Joaquín Sabina, tocar con guitarra Y SIN EMBARGO, tocar con piano Y SIN EMBARGO, estudiar música
Ver más canciones de :

Joaquín Sabina


 
{c} 2016 - letrasyacordes.net