Letras y Acordes |  Acordes |  Afinador |  IMC |  num A B C D E F G H I J K L M N O P Q R S T U V W X Y Z 
 
ÔĽŅ
 

SIEMPRE EST√ĀS ALL√ć - Bar√≥n Rojo  

Links Patrocinados / Anuncios:

una_columnados_columnasaumentar_letrareducir_letravista_scrollver_impresionver_impresion_con_acordes | votar: ++++++---- | Puntaje actual: 6.50

Links Patrocinados

Links Patrocinados

calculadora de indice de masa corporal IMC

Links Patrocinados




Diccionario de Nombres

QUE TAL, ESTA ES UNA CANCI√ďN QUE TIENE UNA LETRA BESTIAL,
Y ES DURO AFRONTAR LA PERDIDA DE UN AMIGO, HERMANO, COMO
LO FUE CRISTIAN "CHAPULA" DE LOS SOL PURPURA, UN SALUDO
GORDO ALLA EN EL CIELO, SIGUE ROKEANDO, Y CUIDA A LOS PANAS
QUE QUEDAMOS ACA, UN JUSTO HOMENAJE A TI CON LO QUE MAS NOS GUSTABA,
LA MUSICA. ABRAZOS PARA LOS S.P Y VAMOS ADELANTE LOCOS.
COCO, OSCAR, RAFA LOS QUIERO, IGUAL A LOS S.P
ATTE. VINICIO VEGA G.
ESTA ROLA ESTA SUPER COMPLETA, SI QUIEREN EL TAB DEL BAJO,
ESCRIBAN A MI E-MAIL.


Intro:

DOS GUITARRAS, INICIAN AL MISMO TIEMPO:

Guitarra 1 (x2)

e|---12-13--------12-13-------12-13--12-13--12-13--|
B|-------------------------------------------------|
G|---------14vvv--------14vvv----------------------|

e|--12-1310v--15-13h15p13-12-10----12-10vvv----|
B|------------------------------13--------------|
G|----------------------------------------------|

Guitarra 2 (x2)

G|--9-10-------9-10---------9-10-9-10-9-10-9-107v-|
D|-------------------------------------------------|
A|-------12vvv------12vvv--------------------------|
E|-------------------------------------------------|

G|-12-10h12p10-9-7----9-7-------|
D|-----------------10-----------|
A|------------------------------|
E|------------------------------|


LUEGO, INICIAS LOS VERSOS CON LAS NOTAS:

Bb7-C6-Dm (Arpegias con el bajo de la nota, todo hacia abajo)

Pre-Verso 1:

   Bb7     C6       Dm           Bb7     C6
e|------------------------1----------------------|
B|-------3-------3------3---3----------3-------3-|
G|-----0-------0------2--------------0-------0---|
D|---3-------2------0----------0---3-------2-----|
A|-1-------3---------------------1-------3-------|
E|-----------------------------------------------|

AHORA SI ENTRA LA CANTADA, MISMAS NOTAS,
SOLO QUE AL FINAL AUMENTAS UN C, ASI:

Bb - C6 - Dm - C

Y ahora si inicias el verso cantadO:
e|---------1---------------1----------|
B|-------3---3-----------3---3--------|
G|-----2---------------2--------------|
D|---0------------0-------------------|
A|------------------3------------3--2-|
    Lleg√≥ el final,   ces√≥ el clamor  la

e|-----1-------------1--------------------|
B|---3---3---------3---3-----------3------|
G|-0------------(0)--------------0---0----|
D|-----------------------------3----------|
A|----------2----------------1---------1--|
E|------------3-----------3---------------|
  magia se desvaneci√≥     tus ojos siguen

e|--------------------1------------0--------|
B|-------3----------3---3----------1--------|
G|-----0---0------2--------------0----------|
D|---2----------0---------0----2----------0-|
A|-3----------3--------------3----------3---|
E|------------------------------------------|
         fijos sobre mi.             La fr√≠a

e|-----1-------------1-------------1--------------1----|
B|---3---3---------3---3---------3---3----------3---3--|
G|-2-------------2-----------(0)--------------0--------|
D|---------0-------------------------------------------|
A|-----------3----------3--2------------2--------------|
E|-----------------------------------------3-----------|
  luz de un pabell√≥n   sobre un mar de cristales rotos

e|------------------------------|
B|-----------3---------------3--|
G|---------0---0-----------0---0|
D|------3---------------2-------|
A|----1-----------1--3----------|
E|-3----------------------------|
      y un naufrago se ahoga en

e|----------1-------------0----|
B|--------3---3-----------1-1--|
G|------2---------------0------|
D|----0----------0----2--------|
A|-3----------------3----------|
E|-----------------------------|
  un rinc√≥n.

AQUI ENTRA LA GUITARRA1 CON DISTORSI√ďN FUERTE:

      F5     C5    A#5    D5    G5    A5
e|-----------------------------------------|
B|-----------------------------------------|
G|-----------5------------7-----5----------|
D|----3------5------8-----7-----5-----7----|
A|----3------3------8-----5-----3-----7----|
E|----1-------------6-----------------5----|

 F5
Y mi hogar vuelve a ser
 C5                         A#5        D5
en cualquier lugar cualquier hotel,
 F5
dej√≥ atr√°s la ciudad
 C5                        G5        A5
dime t√ļ esta noche ¬Ņa d√≥nde ir√°s?


Verso 2:
e|--------1-------------1-------------1------|
B|------3---3---------3---3---------3---3----|
G|----2-------------2------------(0)---------|
D|-0----------0------------------------------|
A|---------------3----------3--2----------2--|
E|-------------------------------------------|
  La actuaci√≥n me hace bibrar  y el escenario

e|---------1------------------------------|
B|-------3---3-----------3-------------3--|
G|----(0)--------------0---0---------0---0|
D|-------------------3-------------2------|
A|----------------1-----------1-3---------|
E|-3------------3-------------------------|
    es un volc√°n que brama     con sonido


e|----------1--------------------|
B|--------3---3-------3-------3--|
G|------2-----------0-------0----|
D|---0------------3-------2------|
A|-3------------1-------3--------|
E|-------------------------------|
   atronador.

e|-------1-------------1-------------1-----------------|
B|-----3---3---------3---3---------3---3------------3--|
G|---2------------(0)-----------(0)---------------0---3|
D|-0----------0---------------------------------3------|
A|--------------2------------2---------------1---------|
E|-----------------------------3----------3------------|
       Ba√Īado por sudor y luz  te busco entre la multitud


e|-------------------------1--------------0---|
B|----------3------------3---3------------1-1-|
G|--------0---0--------2----------------0-----|
D|------2-----------0------------0----2-------|
A|-1--3----------3------------------3---------|
E|--------------------------------------------|
  porqu√© yo s√© que siempre est√°s all√≠.

AQUI ENTRA LA GUITARRA1 CON DISTORSI√ďN FUERTE:

      F5     C5    A#5    D5    G5    A5
e|-----------------------------------------|
B|-----------------------------------------|
G|-----------5------------7-----5----------|
D|----3------5------8-----7-----5-----7----|
A|----3------3------8-----5-----3-----7----|
E|----1-------------6-----------------5----|

 F5
Y mi hogar vuelve a ser
 C5                         A#5        D5
en cualquier lugar cualquier hotel,
 F5
dej√≥ atr√°s la ciudad
 C5                        G5        A5
dime t√ļ esta noche ¬Ņa d√≥nde ir√°s?


 A#5          D5
Descender√°s al reino de la oscuridad
 A#5            G5                G5-A5
sigue buscando una escalera al cielo.
 A#5           D5
Dime si habr√° alguien que te espere
 A#5
o eternamente mientras te duermes
 C5
los ojos de tus heroes te miran
   D5        (D5/C5)
desde la pared.

SOLO:
(BIEN EL SOLO ESTA SUPER BIEN SACADO EN LA
TABLATURA ANTERIOR, DE
Aledes Ivan Chica Londo√Īo albeckh@hotmail.com)
ASI QUE LE AUMENTO ESE SOLO AQUI.CON ALGUNOS ARREGLOS
DANDO CREDITO A QUIEN SE MERECE,
CON UNA ACLARACI√ďN, LA GUITARRA2 ACOMPA√ĎA CON
LAS NOTAS DE LOS COROS AL SOLO Y CON EFECTO DEELAY:

Solo:
B|---------------------------------------------------------------6p5-|
G|-/7vvv5--------------------------------------------5v---5/7vvv-----|
D|--------7-5---5--5vv-------------------3------3-3/5----------------|
A|------------8--------8-5vv---5p3---3-5---5vv-----------------------|
E|---------------------------------5---------------------------------|

e|----------------------------------------------------------------------|
B|-6-8v--6-5-6vv--5h6p5---5-6-8-5v--------------------------------13p10-|
G|----------------------7---------7vvv------10.-12.-12b14r12b14vb14-----|
D|--------------------------------------/12.----------------------------|

B|---------------------------------------------------8/10/--12/15v-/15vv|
G|-10-12-10h12p10--------------------------------5/7---------------------|
D|----------------7vvvv--8-7h8p7--5---5v---------------------------------|
A|----------------------------------8----8-7-5vv-------------------------|

e|-----------------------------------------------13-------------|
B|------13p10---------------------------------------------------|
G|-12b14-----12-10h12-12b14r12--12p10---10-12b14----14p1210----|
D|------------------------------------12---------------------12-|

G|-10vvv---------------------------------10h12p10---10h12p10--|
D|-----10h12p10----10-------------10/12v---------12---------12|
A|--------------12----12-------10-----------------------------|
E|------------------------10/12-------------------------------|

e|-------------------------------------13--------13---------------------|
B|-------------------------------------13--13-13-13-13-13----10---------|
G|-10h12p10h12p10h12p10h12p10-10h12b14----b14b14b14b14b14vv-----12p10---|

e|-------------------------------------------------------------------|
B|-------13vvv-10h12p10----10.-12b14r12v-10----11vv--10h12p10---11---|
G|-12p10----------------12------------------12----------------12-----|

e|------------------------10-------------------------------------|
B|10h11p10-------10-11-13----13-11-10----10h11p10----10----------|
G|---------12-------------------------12----------12----12-10----|
D|------------------------------------------------------------12-|


e|---------------------------13---------------------10-------------|
B|------------------------------13--10-----------------13p10-13-10-|
G|-10h12p10h12p10----10-12b14vvb14-----12p10-12b14v----------------|
D|-----------------12----------------------------------------------|


e|----------------------10vvvv-------|
B|----10-----------------------------|
G|-12----12p10----10h12--------------|
D|-------------12--------------------|

TERMINA EL SOLO Y VAN LAS DOS GUITARRAS:

Guitarra 1 (x2)

e|---12-13--------12-13-------12-13--12-13--12-13--|
B|-------------------------------------------------|
G|---------14vvv--------14vvv----------------------|

e|--12-1310v--15-13h15p13-12-10----12-10vvv----|
B|------------------------------13--------------|
G|----------------------------------------------|



Guitarra 2 (x2)

G|--9-10-------9-10---------9-10-9-10-9-10-9-107v-|
D|-------------------------------------------------|
A|-------12vvv------12vvv--------------------------|
E|-------------------------------------------------|

G|-12-10h12p10-9-7----9-7-------|
D|-----------------10-----------|
A|------------------------------|
E|------------------------------|


A#5          D5
Descender√°s al reino de la oscuridad
 A#5            G5                G5-A5
sigue buscando una escalera al cielo.
 A#5           D5
Dime si habr√° alguien que te espere
 A#5
o eternamente mientras te duermes
 C5
los ojos de tus heroes te miran
   D5        (D5/C5)
desde la pared.


e|--------1-------------1---------|
B|------3---3---------3---3-------|
G|----2-------------2-------------|
D|-0----------0-------------------|
A|---------------3----------3--2--|
E|--------------------------------|
  Volvi√≥ el clamor, no habr√° final

e|-----1--------------1------------------------------|
B|---3---3----------3---3-----------3-------------3--|
G|-0--------------0---------------0---0---------0---0|
D|------------------------------3-------------2------|
A|---------2-----------------1-----------1-3---------|
E|------------3------------3-------------------------|
      la magia no se romper√°     todo est√° bien

e|------------1-----------1----------------------0--------0-------|
B|----------3---3-------3---3---------3----------3--------3-------|
G|--------2-----------2-------------0---0------0---0------0-------|
D|-2----0-----------0-------------2----------2------------2-------|
A|---3--------------------------3----------3--------------3-------|
E|----------------------------------------------------------------|
  si tu est√°s aqu√≠      Oh, si tu est√°s aqu√≠.

EN ESTA PARTE VA UN SILENCIO DE 5 SEGUNDOS Y LUEGO ENTRA LA BATERIA....

F5
No abra finaaaaaaaal¬°
 C5      A#5        D5
No abra finaaaaaaaal¬°
 F5
Aunque no esteeees¬°
 C5                        G5        A5
Tu siempre estaaas aqui...Ohhhhhhhhh¬°


Y AHI SE TERMINA TABLATURA COMPLETA.




Esta es una transcripcion personal de un usuario de www.letrasyacordes.net - El material contenido en esta pagina es para exclusivo uso privado, quedando prohibida su reproduccion o retransmision, asi como su uso con fines comerciales.


Letras y Acordes punto net, el mejor sitio para encontrar y compartir letras de canciones, con sus correspondientes acordes para guitarra y piano. No te olvides de votar para calificar la calidad de las letras
Palabras utilizadas para encontrar esta p√°gina:
Bar√≥n Rojo, SIEMPRE EST√ĀS ALL√ć, letra y acordes de SIEMPRE EST√ĀS ALL√ć de Bar√≥n Rojo, canciones de Bar√≥n Rojo, tocar con guitarra SIEMPRE EST√ĀS ALL√ć, tocar con piano SIEMPRE EST√ĀS ALL√ć, estudiar m√ļsica
Ver m√°s canciones de :

Barón Rojo


 
{c} 2016 - letrasyacordes.net