Letras y Acordes |  Acordes |  musica y amigos |  Afinador | 
 
num  A  B  C  D  E  F  G  H  I  J  K  L  M  N  O  P  Q  R  S  T  U  V  W  X  Y  Z  

 

ZAMBA DE MI ESPERANZA - Los Chalchaleros  

Links Patrocinados / Anuncios:

una_columnados_columnasaumentar_letrareducir_letravista_scrollver_impresionver_impresion_con_acordes | votar: ++++++---- | Puntaje actual: 6.86

Links Patrocinados

Links Patrocinados

calculadora de indice de masa corporal IMC

Links Patrocinados




Diccionario de Nombres

ACORDES:> RE MI7 LA7 SOL

LOS CHARCHALEROS

Zamba de mi esperanza

ACORDES : RE MI7 LA7 SOL

  RE  MI7 LA7 SOL
1|-2-|---|---|-3-|
2|-3-|---|-2-|---|
3|-2-|-1-|---|---|
4|---|---|-2-|---|
5|---|-2-|---|-2-|
6|---|---|---|-3-|

PUNTEO :

PRIMERA ESTROFA

1|------------------2---------------2-2-5---2--------|
2|--3---------2-3-5---3-------2-3-5-------3---5-3-2--|
3|----2---2-4-------------2-4------------------------|
4|---------------------------------------------------|
5|---------------------------------------------------|
6|---------------------------------------------------|

1|--3-------3-2-------2-----------2-3-5--|
2|--------5-----3---3---5-5-3-5-3--------|
3|----4-4---------2----------------------|
4|---------------------------------------|
5|---------------------------------------|
6|---------------------------------------|

1|-7---7--7--7-7--------------------------|
2|---------------10-7---7-10-8-------7----|
3|--------------------7--------9-7-6---7--|
4|----------------------------------------|
5|----------------------------------------|
6|----------------------------------------|

SEGUNDA ESTROFA (igual a la primera)

ESTRIBILLO

1|----------------------------7-----------------5--|
2|--7-7-7-7-10-10-10-8-7-8-10---4-5-7-8-8-8-7-5----|
3|-------------------------------------------------|
4|-------------------------------------------------|
5|-------------------------------------------------|
6|-------------------------------------------------|

1|-------------------------------------------------------------|
2|-------------------7----------7-----------7-8-10-----7-8-10--|
3|--7-7--------6-7-9---7------7---9-9-7-9-7--------7-9---------|
4|------7--7-9--------------7----------------------------------|
5|-------------------------------------------------------------|
6|-------------------------------------------------------------|

1|-7---7--7--7-7--------------------------|
2|---------------10-7---7-10-8-------7----|
3|--------------------7--------9-7-6---7--|
4|----------------------------------------|
5|----------------------------------------|
6|----------------------------------------|


PRIMERA

RE
Zamba de mi esperanza,
               MI7 LA7
amanecida como un querer,
SOL                RE
sueños, sueños del alma         |
            LA7             RE  | BIS
que a veces mueren sin florecer |


RE
Zamba a ti te canto,
                    MI7  LA7
porque tu canto derrama amor,
  SOL           RE
caricia de tu pañuelo,        |
            LA7           RE  | BIS
que va envolviendo mi corazón |


ESTRIBILLO

  RE              LA7
Estrella tú que miraste,
                         RE
tú que escuchaste mi padecer,

estrella deja que cante,   |
         LA7            RE | BIS
deja que quiera como yo se |


SEGUNDA

   RE
El tiempo que va pasando,
                 MI7    LA7
como la vida, no vuelve más,
   SOL            RE
el tiempo me va matando, |
       LA7          RE   | BIS
y tu cariño será, será   |


   RE
Hundido en el horizonte,
                     MI7    LA7
soy polvarera que al viento va,
SOL            RE
zamba ya no me dejes,       |
          LA7           RE  | BIS
yo sin tu canto no vivo más |


ESTRIBILLO

  RE              LA7
Estrella tú que miraste,
                         RE
tú que escuchaste mi padecer,

estrella deja que cante,   |
         LA7            RE | BIS
deja que quiera como yo se |




Esta es una transcripcion personal de un usuario de www.letrasyacordes.net - El material contenido en esta pagina es para exclusivo uso privado, quedando prohibida su reproduccion o retransmision, asi como su uso con fines comerciales.


Articulo Destacado: Un video de un muchacho virtuoso

 
Una verdadera joyita lo que hace este muchacho con la guitarra
 
Letras y Acordes punto net, el mejor sitio para encontrar y compartir letras de canciones, con sus correspondientes acordes para guitarra y piano. Registrate en nuestro foro y enterate cómo agregar tus propias transcripciones. No te olvides de votar para calificar la calidad de las letras
Palabras utilizadas para encontrar esta página:
Los Chalchaleros, ZAMBA DE MI ESPERANZA, letra de ZAMBA DE MI ESPERANZA de Los Chalchaleros, letras, letra, acordes, canciones, letras de cancion, lyrics, cancion, grupo, banda, cantante, tablatura, partitura, tocar con guitarra, tocar con piano, tocar con bajo, armónica, teclado, bajo, ejecutar, estudiar música
Ver más canciones de :

Los Chalchaleros


 
{c} 2007 / 2011 - letrasyacordes.net