Letras y Acordes |  Acordes |  Afinador |  IMC |  num A B C D E F G H I J K L M N O P Q R S T U V W X Y Z 
 

 

TU AMOR - Luis Fonsi  

Links Patrocinados / Anuncios:

una_columnados_columnasaumentar_letrareducir_letravista_scrollver_impresionver_impresion_con_acordes | votar: +++++++--- | Puntaje actual: 7.77

Links Patrocinados

Links Patrocinados

calculadora de indice de masa corporal IMC

Links Patrocinados




Diccionario de Nombres

ACORDES:> Am F G E C

hola gente soy tito de p.r. otraves enviando otra cancion de
luis fonsi.Espero que les guste.esta cancion se la dedico a
emily

Intro:

             Lam                            Fa
|-----------------------------|------------------------------|
|-----------0h1-----1---------|----------1h3------3----------|
|--------2--------2-----2-----|-------2--------1------1------|
|-----------------------------|------------------------------|
|----0------------------------|------------------------------|
|-----------------------------|----1-------------------------|

            Sol                                 Lam
|--------------------------------|--------------3---------------|
|-----------0h3------3-----------|-----------1----------1-------|
|--------0---------0------0------|--------2----------2-----2----|
|--------------------------------|------------------------------|
|--------------------------------|----0-------------------------|
|----3---------------------------|------------------------------|

Am
Contigo me sentía bien
         F
no me acordaba del pasado
  G                                     Am
de pronto en mi vida simple fuiste un milagro
 F
contigo no habia un dia gris
           Am
ni noches frías antes de dormir
  F                                         E
contigo no morían de hambre ni de sed mis labios
 Am                             F
contigo una y otra ves quería volver para salvarme
 G                                  Am
contigo el mundo parecía un lugar amable
  F                                   Am
contigo yo era mas que yo por que al quererte quería ser mejor
 F                                           E
y ahora que no estas la vida me ha quedado grande

coro :
E   F    G    C      E            F
Porque es tu amor el alma de mi alma
G   C        E            F
tu amor la fuerza que me alza
G   C    E    F      G  Am
tu amor un recuerdo una voz



gracias gente los acorde y rutinas son las mismas en toda la
cancion.espero que les guste cualquier duda o mjores me avisan a
mi msn.




Esta es una transcripcion personal de un usuario de www.letrasyacordes.net - El material contenido en esta pagina es para exclusivo uso privado, quedando prohibida su reproduccion o retransmision, asi como su uso con fines comerciales.


Letras y Acordes punto net, el mejor sitio para encontrar y compartir letras de canciones, con sus correspondientes acordes para guitarra y piano. No te olvides de votar para calificar la calidad de las letras
Palabras utilizadas para encontrar esta página:
Luis Fonsi, TU AMOR, letra y acordes de TU AMOR de Luis Fonsi, canciones de Luis Fonsi, tocar con guitarra TU AMOR, tocar con piano TU AMOR, estudiar música
Ver más canciones de :

Luis Fonsi


 
{c} 2016 - letrasyacordes.net