Letras y Acordes |  Acordes |  Afinador |  IMC |  num A B C D E F G H I J K L M N O P Q R S T U V W X Y Z 
 

 

LA ADIVINA - Pappo  

Links Patrocinados / Anuncios:

una_columnados_columnasaumentar_letrareducir_letravista_scrollver_impresionver_impresion_con_acordes | votar: ++++++---- | Puntaje actual: 6.00

Links Patrocinados

Links Patrocinados

calculadora de indice de masa corporal IMC

Links Patrocinados




Diccionario de Nombres

Esta transcripcion esta hecha del disco de album â€œAeroblus” (1976)
La afinación del bajo en este tema del disco es un poco mas grave de la
comun(440).

G|---------------------------6-7-9-----------------6h7-6h7-6-----|
D|------9--7--9---------9--9------------9--7--9--------------9-7-|
A|---------------------------------------------------------------|
E|-7---------------7---------------7-----------------------------|

G|---------------------------6-7-9---------------------------------|
D|------9--7---9--------9--9------------9--7--9--------------------|
A|-----------------------------------------------------------------|
E|-7---------------7---------------7---------------9h10-9h10-9-7-5-|
       â€œSi acertaste,   es porque estuviste con una adivina”
G|----------------------------------------------
D|----------------------------------------------
A|-------------------7--------------------------
E|-3--------5-----------------3--------5--------

G|---------------------------6-7-9---------------------------------|
D|------9--7---9--------9--9------------9--7--9--------------------|
A|-----------------------------------------------------------------|
E|-7---------------7---------------7---------------9h10-9h10-9-7-5-|
       â€œY ella te dijo, que hoy vendriamos a buscarte”
G|----------------------------------------------
D|----------------------------------------------
A|-------------------7--------------------------
E|-3--------5---------0-------3--------5--------

G|---------------------------6-7-9---------------------------------|
D|------9--7---9--------9--9------------9--7--9--------------------|
A|-----------------------------------------------------------------|
E|-7---------------7---------------7---------------9h10-9h10-9-7-5-|
  Huuuuuuu, Huuuu, Huuuu
G|-----------------------------------------------
D|----------------------9-8--7-------------------
A|-----------------------------9-8--7------------
E|-3------3-5--------7----------------10-7--5-0-2
  Huuuuuuu, Huuuu, Huuuu
G|------------------------------------------------------------------------
D|------------------------------------------------------------------------
A|--------------------7----------------------------7----------------------
E|-3--------5---------0-------------0--------------0----------------------
(durante el solo de viola)
G|---------------------------6-7-9-----------------6h7-6h7-6-----|
D|------9--7--9---------9--9------------9--7--9--------------9-7-|
A|---------------------------------------------------------------|
E|-7---------------7---------------7-----------------------------|

G|---------------------------6-7-9-----------------6h7-6h7-6-----|
D|------9--7--9---------9--9------------9--7--9--------------9-7-|
A|---------------------------------------------------------------|
E|-7---------------7---------------7-----------------------------|

G|--------------------------------------------
D|--------------------------------------------
A|-------------------7------------------------
E|-3----3-4-5---------0-0-----3-3-3-3-5-5-5-5-

G|---------------------------6-7-9---------------------------------|
D|------9--7---9--------9--9------------9--7--9--------------------|
A|-----------------------------------------------------------------|
E|-7---------------7---------------7---------------9h10-9h10-9-7-5-|

G|----------------------------------------------
D|----------------------------------------------
A|-------------------7--------------------------
E|-3--------5---------0-0-----3--------5--------

G|---------------------------6-7-9---------------------------------|
D|------9--7---9--------9--9------------9--7--9--------------------|
A|-----------------------------------------------------------------|
E|-7---------------7---------------7---------------9h10-9h10-9-7-5-|

G|-----------------------------------------------
D|----------------------9-8--7-------------------
A|-----------------------------9-8--7------------
E|-3------3-5--------7----------------10-7--5-0-2

G|------------------------------------------------------------------------
D|------------------------------------------------------------------------
A|--------------------7----------------------------7----------------------
E|-3--------5---------0-------------0--------------0----------------------

G|---------------------------6-7-9-----------------6h7-6h7-6-----|
D|------9--7--9---------9--9------------9--7--9--------------9-7-|
A|---------------------------------------------------------------|
E|-7---------------7---------------7-----------------------------|

G|---------------------------6-7-9-----------------6h7-6h7-6-----|
D|------9--7--9---------9--9------------9--7--9--------------9-7-|
A|---------------------------------------------------------------|
E|-7---------------7---------------7-----------------------------|
       â€œSi acertaste,   es porque estuviste con una adivina”
G|----------------------------------------------
D|----------------------------------------------
A|-------------------7--------------------------
E|-3--------5-----------------3--------5--------

G|---------------------------6-7-9---------------------------------|
D|------9--7---9--------9--9------------9--7--9--------------------|
A|-----------------------------------------------------------------|
E|-7---------------7---------------7---------------9h10-9h10-9-7-5-|
       â€œY ella te dijo, que hoy vendriamos a buscarte”
G|----------------------------------------------
D|----------------------------------------------
A|-------------------7--------------------------
E|-3--------5---------0-0-----3--------5--------

G|---------------------------6-7-9---------------------------------|
D|------9--7---9--------9--9------------9--7--9--------------------|
A|-----------------------------------------------------------------|
E|-7---------------7---------------7---------------9h10-9h10-9-7-5-|
  Huuuuuuu, Huuuu, Huuuu
G|-----------------------------------------------
D|----------------------9-8--7-------------------
A|-----------------------------9-8--7------------
E|-3--------5--------7----------------10-7--5-0-2
  Huuuuuuu, Huuuu, Huuuu                                      Final
G|-----------------------------------------------------------|------------|
D|-----------------------------------------------------------|------------|
A|--------------------7----------------------------7---------|------------|
E|-3------3-5---------0-------------0--------------0---------|--7---------|

Vendriamos a buscarte-la adivina (Pappo-Medina)

Si acertaste,
es porque estuviste,
con una adivina;
y ella te dijo,
que hoy vendríamos,
a buscarte.

Huuuuuuu, Huuuu, Huuuu
Huuuuuuu, Huuuu, Huuuu


Mientras su musica se siga tocando y escuchando el carpo jamas morira,
vivira eternamente en la memoria de todos...
e-mail: zarathustra4321@hotmail.com




Esta es una transcripcion personal de un usuario de www.letrasyacordes.net - El material contenido en esta pagina es para exclusivo uso privado, quedando prohibida su reproduccion o retransmision, asi como su uso con fines comerciales.


Letras y Acordes punto net, el mejor sitio para encontrar y compartir letras de canciones, con sus correspondientes acordes para guitarra y piano. No te olvides de votar para calificar la calidad de las letras
Palabras utilizadas para encontrar esta página:
Pappo, LA ADIVINA, letra y acordes de LA ADIVINA de Pappo, canciones de Pappo, tocar con guitarra LA ADIVINA, tocar con piano LA ADIVINA, estudiar música
Ver más canciones de :

Pappo


 
{c} 2016 - letrasyacordes.net