Letras y Acordes |  Acordes |  Afinador |  IMC |  num A B C D E F G H I J K L M N O P Q R S T U V W X Y Z 
 
ÔĽŅ
 

EL MANISERO - Los Cuates de Sinaloa  

Links Patrocinados / Anuncios:

una_columnados_columnasaumentar_letrareducir_letravista_scrollver_impresionver_impresion_con_acordes | votar: +++++++--- | Puntaje actual: 7.45

Links Patrocinados

Links Patrocinados

calculadora de indice de masa corporal IMC

Links Patrocinados




Diccionario de Nombres

Bueno gracias y aqu√≠ les dejo esta transcripci√≥n
Mi correo por alguna duda o pregunta.

No se vallan con la finta hagan la lucha

Para los que no saben leer
estas tablaturas los n√ļmeros
 son los nombres de los trastes
El cero se icnifica al aire OK.

Num.1
6.-----------------------
5.-----------------------
4.-----------------------
3.-0-0-0-2-4-5-5--4------
2.------------3-3-3------
1.----------------3------
Mira nom√°s, mira nom√°s.

6.-----------------------
5.-----------------------
4.-----------------------
3.-0-0-0-2-4-5-5--4------
2.------------3-3-3------
1.----------------3------
zapateyele.

Num.2
6.-------------------------------------------------
5.-------------------------------------------------
4.-------------------------------------------------
3.-0-0-0-2-4-5-------------------------------------
2.-------------3-2---------------------------------
1.-----------------1-4-1-0-5-5-0-1-4-4-4-1-0-5-5-0-1....
 Esta parte se repite barias
veces pero ay un momento donde
Sube de velocidad. Que es el que sigue

6.-------------------
5.-------------------
4.-------------------
3.-------------------
2.-------------------
1.-0-1-4-4-1-0-5-5---.

esta es una de las partes que da mas r√°pido
pero si quieren hacerlo todav√≠a mas r√°pido
sigan este concedo que les boy a poner en la
parte de abajo

Esta un poquitito dif√≠cil pero
si lo practican unos d√≠as les va a
Salir.
  Jalen la cuerda Asia abajo
cada ves que pises en el trste con
La mano izquierda

EJEMPLO:

6.-------------------------------------
5.-------------------------------------
4.-------------------------------------
3.-------------------------------------
2.-------------------------------------
1.-0-1-4-4-1-0-5-5--0-1-4-4-1-0-5-5-...
     ^ ^ ^ ^   ^ ^    ^ ^ ^ ^   ^ ^
     | | | |   | |    | | | |   | |
     j j j j   j j    j j j j   j j
     a a a a   a a    a a a a   a a
     l l l l   l l    l l l l   l l
     a a a a   a a    a a a a   a a

 Donde dice jala es donde se jala la cuerda
se jala la cuerda
Nada m√°s donde hay pisada donde es al aire no.

Num.3
En esta parte se sigue asiendo lo
 primero pero entra donde empieza a bajar
Que es esto
6.----------------------------------
5.----------------------------------
4.----------------------------------
3.----------------------------------
2.----------------------------------
1.-5-5-5-5-5--7-7-7-7-7--9-9-9-9-9--

6.------------------------------
5.------------------------------
4.------------------------------
3.------------------------------
2.------------------------------
1.- 10-12-10-12-10-12-10-12-----


Aqu√≠ quedo esta parte no se
si este bien contada las veces por que es muy r√°pido
Pero ustedes lo siguen
con el o√≠do en los cambios pero en donde
dice 10 12 tambi√©n
Se jala y en los dem√°s n√ļmeros el dedo
 esta soltando y agarrando la cuerda para que
Se escuche el brincoteo.

Num.4
6.-----------------------------------
5.-----------------------------------.
4.-----------------------------------  .
3.-----------------------------------
2.-----------------------------------
1.-0-2-2-0--0-2-2-0--0-2-2-0---------
en los dos se jala la cuerda igual que los
dem√°s para que se escuche cinch√≥n
pero sigue lo primero tambi√©n para seguir

Se vuelve a repetir el Num.2

y despu√©s se repite el Num.3
Pero es igual pero entra ya donde
 se baja hasta los √ļltimos trastes

6.-----------------------.
5.-----------------------
4.-----------------------
3.-----------------------
2.-----------------------
1.-12--14--16--17--19----

Aqu√≠ es m√°s velocidad en la mano derecha
Despu√©s del 19 rebrinca a la boca de la
guitarra y la aplastas la cuerda con la mano
izquierda.



Despu√©s se la sube en la espalda
 int√©ntalo no esta tan dif√≠cil.

Despu√©s le da con la botella si no tienes
 botella dale con un baso de vidrio.

La botella se gala de abajo a si arriba
 y si quieres que se escuche
Como si estuvieran flojas las cuerdas
dale con la sexta hasta la
Tercera. RECUERDA que tienes que tocar
 tambi√©n con la derecha OK
Con la botella.

Despu√©s disminuye la velocidad y aumenta
 ay se vuelve a repetir el
Paso Num.2

Bueno gracias y aqu√≠ les dejo esta trascripci√≥n
Mi correo por alguna duda o preguntad correo
por alguna duda o pregunta.




Esta es una transcripcion personal de un usuario de www.letrasyacordes.net - El material contenido en esta pagina es para exclusivo uso privado, quedando prohibida su reproduccion o retransmision, asi como su uso con fines comerciales.


Letras y Acordes punto net, el mejor sitio para encontrar y compartir letras de canciones, con sus correspondientes acordes para guitarra y piano. No te olvides de votar para calificar la calidad de las letras
Palabras utilizadas para encontrar esta p√°gina:
Los Cuates de Sinaloa, EL MANISERO, letra y acordes de EL MANISERO de Los Cuates de Sinaloa, canciones de Los Cuates de Sinaloa, tocar con guitarra EL MANISERO, tocar con piano EL MANISERO, estudiar m√ļsica
Ver m√°s canciones de :

Los Cuates de Sinaloa


 
{c} 2016 - letrasyacordes.net