Letras y Acordes |  Acordes |  Afinador |  IMC |  num A B C D E F G H I J K L M N O P Q R S T U V W X Y Z 
 

 

LA BALADA DEL PISTOLERO - Música de Películas  

Links Patrocinados / Anuncios:

una_columnados_columnasaumentar_letrareducir_letravista_scrollver_impresionver_impresion_con_acordes | votar: +++++++--- | Puntaje actual: 7.76

Links Patrocinados

Links Patrocinados

calculadora de indice de masa corporal IMC

Links Patrocinados




Diccionario de Nombres

ACORDES:> SI A MI Em B7 Am

ESTA ES LA CANCION ORIGIANL SI QUIERES APREDERNALA LEE TODO
Y SI TIENES ALGUNA DUDA ESCRIBE A MI CORREO   italoxs@hotmail.com

/////////////////////////////////////////////////////////////////
COMIENZA ASI

e|-----7-7-7-7-8-7-7-7-8-7-7------|----5-5-5-5-7-5-5-5-7-5-5-----|
B|---8-8-8-8-8-8-8-8-8-8-8-8-8----|--7-7-7-7-7-7-7-7-7-7-7-7-7-8-|
G|--9------------------------9-10-|-7------------------------7-9-|
D|-9---------------------------11-|------------------------------|
A|--------------------------------|------------------------------|
E|--------------------------------|------------------------------|

Em                                           B7
Me gusta tocar guitarra, me gusta cantar el sol
                                          Em
Mariachi me acompaña, cuando canto mi canción.

Verso 4:
Em                                             B7
Me gustan tomar mis copas, aguardiente es lo mejor
                                               Em
También la tequilla blanca, con cu sal le da sabor.

Coro:
Am           Em
Ay, yay, yay, yay
B7            Em
Ay, ay, mi amor
Am         Em
Ay, mi morena
B7          Em
De mi corazón

e|-----12-------11-------11-------12-------12-------11-|---11-----12-
B|-12-12-12-12-12-12-12-12-12-12-12-12-12-12-12-12-12--|--12—-12-12-
G|--11----11-11----11-11----11-11----11-11----11-11----|-11—-11-11-
D|----------------------------------------------------------------
A|----------------------------------------------------------------
E|----------------------------------------------------------------

e|---12—-12---10--10-9—-9-7-7-5-5-3-3-2-2-0-0---------|
B|--12—-12---12—12----10---9---7---5---3---0-3-0-3-1-0|
G|-11—-11---11----------------------------------------|
D|----------------------------------------------------|
A|----------------------------------------------------|
E|----------------------------------------------------|

e|---------------|------0-2-----0-2-3-------0-2---7-5-3-2-0-|
B|-0---0---------|-0-0-4-----0-0-------0-0-4----------------|
G|--0---2—0------|------------------------------------------|
D|---2---1—2-----|------------------------------------------|
A|----2---2—2----|------------------------------------------|
E|------------0--|------------------------------------------|

Em                                           B7
Me gusta tocar guitarra, me gusta cantar el sol
                                          Em
Mariachi me acompaña, cuando canto mi canción.

Verso 4:
Em                                             B7
Me gustan tomar mis copas, aguardiente es lo mejor
                                               Em
También la tequilla blanca, con cu sal le da sabor.

Coro:
Am           Em
Ay, yay, yay, yay
B7            Em
Ay, ay, mi amor
Am         Em
Ay, mi morena
B7          Em
De mi corazón

***************************************************************
GRACIAS POR UTILIZAR ESTE
ES MUY FACIL

esto es todo              italoxs@hotmail.com




Esta es una transcripcion personal de un usuario de www.letrasyacordes.net - El material contenido en esta pagina es para exclusivo uso privado, quedando prohibida su reproduccion o retransmision, asi como su uso con fines comerciales.


Letras y Acordes punto net, el mejor sitio para encontrar y compartir letras de canciones, con sus correspondientes acordes para guitarra y piano. No te olvides de votar para calificar la calidad de las letras
Palabras utilizadas para encontrar esta página:
Música de Películas, LA BALADA DEL PISTOLERO, letra y acordes de LA BALADA DEL PISTOLERO de Música de Películas, canciones de Música de Películas, tocar con guitarra LA BALADA DEL PISTOLERO, tocar con piano LA BALADA DEL PISTOLERO, estudiar música
Ver más canciones de :

Música de Películas


 
{c} 2016 - letrasyacordes.net