Letras y Acordes |  Acordes |  musica y amigos |  Afinador | 
 
num  A  B  C  D  E  F  G  H  I  J  K  L  M  N  O  P  Q  R  S  T  U  V  W  X  Y  Z  

 

ME DESAHUEVO - De La Nada  

Links Patrocinados / Anuncios:

Links Patrocinados / Anuncios:

musica y amigos
una_columnados_columnasaumentar_letrareducir_letravista_scrollver_impresionver_impresion_con_acordes | votar: ++++++---- | Puntaje actual: 6.00

Links Patrocinados

Links Patrocinados

calculadora de indice de masa corporal IMC

Links Patrocinados




Diccionario de Nombres

apla gente,.. xq nadie sube esta cancion que pone un huevo??!!, la tuve
q sakr yo...wen ta un toke larga pro bien paja...

|--------------------------------|
|--------------------------------|
|-----------5------------5-5-5-5-|
|-5-5-55-5--5--5-5-55-5--5-5-5-5-| (x2)
|-2-2-22-2--3--2-2-22-2--3-3-3-3-|
|-0-0-00-0-----0-0-00-0----------|
                         · · · ·


|--------------------------------|
|-------0------0-------1-------3-|
|-----0------0-------0-------0---|
|---2------2-------2-------0-----| (x6)
|----------------3---------------|
|-0------0---------------3-------|

En la tercera repeticion haces esto:

|--17b-----------|
|---------17b----|
|----------------|
|----------------|
|----------------|
|----------------|

y en la ultima terminas en: |-2-|
                            |-3-|
                            |-2-|
                            |-0-|
                            |---|
                            |---|


Luego esto:

|----------------------------------------------------|
|----------------------------------------------------|
|-------12-12h14-12--14-14h16-14--12-12h14-11h12p11--|
|-14-16----------------------------------------------|
|----------------------------------------------------|
|----------------------------------------------------|

|-----------------------------------------|
|-----------------------17-17-17--19b-19--|
|-------12-12h14-12--14-16-16-16----------|
|-14-16-----------------------------------|
|-----------------------------------------|
|-----------------------------------------|

|-19-17-15-15h17-15-14-15-14--17-15-14-14h15-14-12-14-12-|
|--------------------------------------------------------|
|--------------------------------------------------------|
|--------------------------------------------------------|
|--------------------------------------------------------|
|--------------------------------------------------------|

|----------14-15-14-15-17b-17-15-17-15-14h15p14----------|
|-13-15-17--------------------------------------15-15h17-|
|--------------------------------------------------------|
|--------------------------------------------------------|
|--------------------------------------------------------|
|--------------------------------------------------------|



Todos los dias es lo mismo! wOoOOo!
E5        c5       G5         D5
No se q puede ser peor, ser peor!!!
E5          c5       G5       D5
Matarme yo solo o dejarme en vida
E5          c5          G5  D5
Y no sufrir mas por tu amor

|-----------------------------------|
|-----------------------------------|
|-9-11-11h12-11-9-11----14-12-11-12-| (x2)
|--------------------12-------------|
|-----------------------------------|
|-----------------------------------|esto va abajo

Ya no se q puedo hacer, q puedo hacer!!
Porque sufro en mi interior

C5            D5        E5      D5         C5         D5
Solo miro y pienso un Futuro Incierto que trate de calmar mi do
  E5  c5  G5  D5    E5  c5  G5  D5
looOOooOoooOOooOr looOOooOoOoOooOor
E5                       C5               G5    D5
No sabes todo lo que he hecho para estar contigo
E5                       C5     G5    D5
No  sabes todo lo que por ti yo he vivido
G5                 C5         E5      D5         C5       E5
Y nunk tem diste cuenta q por ti yo mataba q por ti yo mataba mi amor!


|--------------------------------|
|-------0------0-------1-------3-|
|-----0------0-------0-------0---|
|---2------2-------2-------0-----| (x6)
|----------------3---------------|
|-0------0---------------3-------|

En la tercera repeticion haces esto:

|--17b-----------|
|---------17b----|
|----------------|
|----------------|
|----------------|
|----------------|

y en la ultima terminas en: |-2-|
                            |-3-|
                            |-2-|
                            |-0-|
                            |---|
                            |---|

G5        C5    E5   D5   G5          C5        E5   D5
Salgo de esta depresion porque puta madre es mi cancion
G5              C5            E5        D5
Lo siento por ti perdiste un hombre de verdad
G5              C5        E5        D5
Lo siento por ti no lo supiste aprovechar
G5              C5    E5...D5
Lo siento por ti como yo nadie te va a amar
E5     C5      G5      D5
La verdad me llega al pincho  woooo
E5         C5    G5  D5
si me das bola o no, bola o no!!
E5    C5    G5      D5
No se si valdra la pena  noooo
E5        C5      G5       D5
porque ya se que paso en ancon y conese huevon!!


|-----------------------------------|
|-----------------------------------|
|-9-11-11h12-11-9-11----14-12-11-12-| (x2)
|--------------------12-------------|
|-----------------------------------|
|-----------------------------------|esto va abajo

y ahora yo tengo el placer, tengo el placer!!
de gritar en esta cancion!


C5            D5        E5      D5         C5         D5
te miro a la cara me importan huevadas al final todo esto ya se mu

   E5  c5  G5  D5
 riooOOooO Al final todo esto ya se mu (x4)

E5-C5-G5*-D5 luego esto sige aka:

Siento un vacio tan grande tan grande como fue mi amor
amor el que tu rechazaste me entragaste todo este dolor
espinas que al anocheser se clavan en mi corazon
(aki ultimo va lo mismo pero sin palm mute)


(esta parte va con arpegio)
C5            D5        E5      D5         C5         D5
Tu no me aceptaste tambien me rechazaste solo se que no se guardo ren
   E5   c5   G5  D5                             G5
cooOOoOoOor solo se que no te guardo ren (x4)

|--------------------------------|
|-------0------0-------1-------3-|
|-----0------0-------0-------0---|
|---2------2-------2-------0-----|
|----------------3---------------|
|-0------0---------------3-------|

|------------------------------------------------|
|-------0------0-----0h1----3-1-0----------------|
|-----0------0----------0---------0h2-0----------|
|---2------2-------2--------------------0h2-0----|
|----------------3-------------------------------|
|-0------0----------------0-------------------0--|

_______________________________


 Paml Mute = ·

 Bend = b

 Hammer on = h

 Pull off = p

 G5*
|----|
|----|
|-12-|
|-12-|
|-10-|
|----|
_______________________________




Esta es una transcripcion personal de un usuario de www.letrasyacordes.net - El material contenido en esta pagina es para exclusivo uso privado, quedando prohibida su reproduccion o retransmision, asi como su uso con fines comerciales.
Poné el link en tu página o en foros!!!!
Para MySpace:
Para Foros:
musica y amigos
Compartí con tus amigos esta canción en tu Facebook
Articulo Destacado: Mantenimiento de la Guitarra - Cuerdas

 

 
fuente
 
Letras y Acordes punto net, el mejor sitio para encontrar y compartir letras de canciones, con sus correspondientes acordes para guitarra y piano. Registrate en nuestro foro y enterate cómo agregar tus propias transcripciones. No te olvides de votar para calificar la calidad de las letras
Palabras utilizadas para encontrar esta página:
De La Nada, ME DESAHUEVO, letra de ME DESAHUEVO de De La Nada, letras, letra, acordes, canciones, letras de cancion, lyrics, cancion, grupo, banda, cantante, tablatura, partitura, tocar con guitarra, tocar con piano, tocar con bajo, armónica, teclado, bajo, ejecutar, estudiar música
Ver más canciones de :

De La Nada


 
{c} 2007 / 2011 - letrasyacordes.net