Letras y Acordes |  Acordes |  musica y amigos |  Afinador | 
 
num  A  B  C  D  E  F  G  H  I  J  K  L  M  N  O  P  Q  R  S  T  U  V  W  X  Y  Z  

 

ARBOLITO - Grupo Nectar  

Links Patrocinados / Anuncios:

Links Patrocinados / Anuncios:

musica y amigos
una_columnados_columnasaumentar_letrareducir_letravista_scrollver_impresionver_impresion_con_acordes | votar: +++------- | Puntaje actual: 3.00

Links Patrocinados

Links Patrocinados

calculadora de indice de masa corporal IMC

Links Patrocinados




Diccionario de Nombres

EL ARBOLITO recordando a nectar del peru desde Colombia su amigo
eduardo castillo la transcripcion la realicé con el programa
guitar pro 5 escribanme eduardocastillo2@yahoo.es

     W                   W                   H.           S S S S
E||-------------------|-------------------|-----------------------|
B||-------------------|-------------------|-----------------4-----|
G||-------------------|-------------------|---------------5-----3-|
D||-------------------|-------------------|-------------------5---|
A||-------------------|-------------------|-----------------------|
E||-------------------|-------------------|-----------------------|


  S S S S T. S S T. X E  S. T. T. S X S T. X
---------------------------------------------|
----------4------3----------------4-L--------|
--5-----5-------------5--------5--------3----|
------5--------5---------5------------5------|
---------------------------------------------|
---------------------------------------------|


  T. S X S T. X S T. T. X T T. E.  S S S S T. X
------------------------------------------------|
----------------4---------3------------4--------|
--5--------5-------------------5-----5-----3----|
---------5-----------5-------------------5------|
------------------------------------------------|
------------------------------------------------|


  T. S X S T. X S T. S T T. E  S. T T. X S S T. X
--------------------------------------------------|
----------------4------3-----------------4--------|
--5--------5----------------5-------5--------3----|
---------5-----------5---------5-----------5------|
--------------------------------------------------|
--------------------------------------------------|


  T. S X S T. X S T. S T T. Q.     S. X X
------------------------------------------|
----------------4------3-----------L--L---|
--5--------5----------------5-------------|
---------5-----------5--------------------|
------------------------------------------|
------------------------------------------|


             3  3
  Q.     S.  T  T  T.S  T T.  S.T  T.X  T.S  X
------------------11---11----11---10--------11-|
---------------13------13----13--------13---13-|
------------12---------------------------------|
-----------------------------------------------|
-----------------------------------------------|
-----------------------------------------------|


  Q    S. X. X T.  T T.  S S  T.X  X  T S X S S. T X
--L----L----------------10---10---10--------8-6------|
--L----L--L-------11----11---11------11------------8-|
-----------------------------------------------------|
-----------------------------------------------------|
-----------------------------------------------------|
-----------------------------------------------------|


                          3                               3
  X. X T  S  T.X S E  S X X T  S S  T T  S.T  T.X T. S X  X
-----------------8-6--------8-11---11---11---10---8----8-11-|
--L---------11------------8--------13---13------------------|
---------12-------------------------------------------------|
------------------------------------------------------------|
------------------------------------------------------------|
------------------------------------------------------------|


  3                                          3
  H        S X  T T.  S S  T T  S.X X S S. T X
--L------------------10---10---10-L---8-6------|
---------------11----11---11---11------------8-|
-----------------------------------------------|
-----------------------------------------------|
-----------------------------------------------|
-----------------------------------------------|


  3
  T T S T. X T. X Q.     T. T. T T S. X S. X. X
--------6----8----6------L--------------6-------|
--L---8------------------------8---8------------|
------------------------------------------------|
------------------------------------------------|
------------------------------------------------|
------------------------------------------------|


                                                            3
  X T T S X T. T. X S. T S X T T. X X S X T. T. X S. X S. T X
----8---8-L----6---------6-L---8------8-L----6---------6------|
--------------------8----------8----8-------------8---------6-|
--------------------------------------------------------------|
--------------------------------------------------------------|
--------------------------------------------------------------|
--------------------------------------------------------------|


  T X X T. X T. X T. T S. X S. T E  T. T. T X S. T S. X. X
--------3----1----3----1---------3--L-----3---3----6-------|
--L-L-----------------------4----4--L----------------------|
-----------------------------------------------------------|
-----------------------------------------------------------|
-----------------------------------------------------------|
-----------------------------------------------------------|


                                                          3
  X T. X S. T T. X S. T S X T T. T S T. T. T S X T S X T. X
----8----8----6---------6-L---8----8----6----------6-L------|
-------------------8-------------------------8-L------------|
----------------------------------------------------------8-|
------------------------------------------------------------|
------------------------------------------------------------|
------------------------------------------------------------|


  3                                                      3
  T T T. X T T T. T S. X S. T S. X S X T T S X T. S X T. X
---------------------------------------3---3-L----6-L----8-|
------6--------6-----------------------------------------8-|
--L--------8--------8----7----5--L-------------------------|
-----------------------------------------------------------|
-----------------------------------------------------------|
-----------------------------------------------------------|


  3                                                      3
  T T X S. T T. X S. X S. T T. X X S X T T. T S X T S. T X
--L-----8----6---------6----8------8-L---6----------6------|
--L---8-----------8---------8----8------------8-L--------6-|
-----------------------------------------------------------|
-----------------------------------------------------------|
-----------------------------------------------------------|
-----------------------------------------------------------|


                                                           3
  T X X T. X T. X T. T S X T S. T E  T T. T X S. T. T T T. X
--------3----1----3----1-L--------3--L----3---3-----6-7------|
--L-L------------------------4----4--L-----------------------|
-------------------------------------------------------------|
-------------------------------------------------------------|
-------------------------------------------------------------|
-------------------------------------------------------------|


                                                         3
  X T T S. T T. X S. T S X T. T. X S T. T. T S T. S X T. X
----8---8----6---------6-L----8----8----6---------6-L------|
------------------8--------------------------8-------------|
---------------------------------------------------------8-|
-----------------------------------------------------------|
-----------------------------------------------------------|
-----------------------------------------------------------|


  3                                              3
  T T T. T T T T. X S. X S X T. E  T E  T T T S. S
------------------------------------------3---3----|
------6--------6--------------------------4---4----|
--L--------8--------8----7-L----5--L------5---5----|
---------------------------------------------------|
---------------------------------------------------|
---------------------------------------------------|


                                        3
  T. X T T S. T. S. T S. X E  X  T.E.   X  S S
-------3---3-----5----7--L------11--------11---|
----------------------0-------8-13--------13---|
-------0---0---------------------------12------|
-----------------7-----------------------------|
-----------------------------------------------|
-----------------------------------------------|


  S  S  S  S  S  S  S X T.  S.T  T.X  S S  T. T S.  X
----11-------11-----------------10---10---10-10----15-|
-------13-------13--------------11---11---11-11----16-|
----------13-------13-L----10---10---10---10----------|
------------------------------------------------------|
------------------------------------------------------|
------------------------------------------------------|


  X T  S S  T T  S S  T T  E  T T  S E  T.  E  T
--L---15---13---13---11---11--L---11-------11--L-|
--L---16---15---15---13---13--L---13-------13--L-|
----------------------------------12-------12----|
-------------------------------------------------|
-------------------------------------------------|
-------------------------------------------------|


       3
  S  T.X S S  S S S. T  S.T  T.X  S S  T.X  S.T X
----11-9-8---11-8-----------10---10---10---10-----|
-----------9------9---------11---11---11---11---8-|
-----------------------10---10---10---10---10-----|
--------------------------------------------------|
--------------------------------------------------|
--------------------------------------------------|


  X. X T S T. X T. X Q.     E   T. S X  S S  X
-----------6----8----6---------11-----------11-|
--L------8------------------8-----11-L------11-|
---------------------------------------12---12-|
-----------------------------------------------|
-----------------------------------------------|
-----------------------------------------------|


        3              3               3
  E  T. X S  E  T S X  X  Q.     X S.  X  X
--L--L------10--L--------11------L-------11-|
--L--L------11--L--------13--------------11-|
--L--L------10--L-----12--------------12----|
--------------------------------------------|
--------------------------------------------|
--------------------------------------------|


           3                           3  3
  E  T. S  X  E  T. S X  Q.     T S X  X  X
--L--L-------10--L------11------L--------11-|
--L--L-------11--L----8-13------L--------11-|
----------10--------------------------12----|
--------------------------------------------|
--------------------------------------------|
--------------------------------------------|


              3                         |--|
  E  T X S X  X  E  T S X  Q.     T. S  X  T
--L--L----------10--L-----11------L-------10-|
--L--L-L--------11--L---8-13------L-------11-|
-------------10------------------------10----|
---------------------------------------------|
---------------------------------------------|
---------------------------------------------|


         3
  Q.     X S.  Q.     T S.  X  X
--L------L----11------L-------11-|
--L-----------13------L-------11-|
--------------12------L----12----|
---------------------------------|
---------------------------------|
---------------------------------|


        3             3                   3
  E  T. X S  E  T. S  X  Q.     T S X  X  X
--L--L------10--L-------11------L--------11-|
--L--L------11----------13---------------11-|
------------10--L----12---------------12----|
--------------------------------------------|
--------------------------------------------|
--------------------------------------------|


                                    3
  E  T. X S  E.  S X  E  T. Q    S  X
--L--L--L---10-----8-11--L------------|
--L--L--L---11-----8---------------11-|
------------10---------------------12-|
--------------------------------------|
--------------------------------------|
--------------------------------------|


                       3
  X  E.  T.  X  E.  T. X  Q.     S S
----11---------10--------11------L---|
--L---------11---------8-13------L---|
--L---------10-----------------------|
-------------------------------------|
-------------------------------------|
-------------------------------------|


   3
   X  Q.     T S X  Q.     T S. X
-----10------L-----11-------------|
-----11------------13------L------|
--10---------------12------L------|
----------------------------------|
----------------------------------|
----------------------------------|


    3
  S X  T T  S T.  S S S X E  T.  S E  T.  S X S X
----------------------7-L-------11-------11-------|
-----------------10---0---------13-------13-L-----|
------12---12-------------------12-------12-L-----|
--------------------------------------------------|
------10---10----12-------------------------------|
--------------------------------------------------|


    3
  S X  S  T. S  T. S  S.T.  S.T  T T.  S T.  T X  X  T S.  X
------11-------11---------------10----10----10------10----15-|
---------13-------13------------11----11----11---11-------16-|
------------13-------13----10--------------------------------|
-------------------------------------------------------------|
-------------------------------------------------------------|
-------------------------------------------------------------|


  X. X T  S S  T X  S S  T T  S.X  S.X  S.E   S.T. X
--L------15---13---13---11---11-L------11----11------|
--L------16---15---15---13---13-L------13----13------|
----------------------------------12-L-------12------|
-----------------------------------------------------|
-----------------------------------------------------|
-----------------------------------------------------|


    3
  S X  S  S  T. S  S  S S  S.X  T.T  S S  T X  S.T. X
------11-------11--------------10---10---10---10------|
---------13-------13-----------11---11---11---11----8-|
------------13-------13---10---10---10---10---10------|
------------------------------------------------------|
------------------------------------------------------|
------------------------------------------------------|


  X. X T S S  T. E  X  E  T T.  T X  E   E   T S X  X  X
-----------6-11-------------------------11------------11-|
--L------8------11--L-----------------------11--------11-|
----------------------12--L----12---12-------------12----|
---------------------------------------------------------|
---------------------------------------------------------|
---------------------------------------------------------|


      3            3                 3
  E.  X T.  E.  S  X  Q.     T S  X  X
--L--------10--------11------L------11-|
--L--------11--------13-------------11-|
-----------10-----12-------------12----|
---------------------------------------|
---------------------------------------|
---------------------------------------|


                       3                3
  E  T. X S  X  E  T S X X  Q.     S T. X  X
--L--L---------10--L-----8-11------L------11-|
--L--L--L---11---------8----------------8-11-|
------------10-------------------------------|
---------------------------------------------|
---------------------------------------------|
---------------------------------------------|


      3              3              3
  E.  X T.  E  T. S  X  Q.     S S  X
--L--------10--L-------11------L---10-|
--L--------11--L-------13------L---11-|
-----------10--L----12-------------10-|
--------------------------------------|
--------------------------------------|
--------------------------------------|


                3
  Q.     T X S  X  Q.     S S  X
--L------L-L------11------L------|
--L------L--------13------L---11-|
--L------L-L---12-------------12-|
---------------------------------|
---------------------------------|
---------------------------------|


                       3
   E  T. S X  E  T. S  X  Q.     T. S X  X
--11--L------10--L-------11------L------11-|
-------------11--L-------13------L------11-|
-------------10--L----12----------------12-|
-------------------------------------------|
-------------------------------------------|
-------------------------------------------|


      3
  E.  X T.  X  E  T. T. X X  Q.     S T.  X
--L-----------10--L-------8-11------L----11-|
--L-----------11--L-----8----------------11-|
--L--------10----------------------------12-|
--------------------------------------------|
--------------------------------------------|
--------------------------------------------|


        3
  E  T. X S X  E.  T.  Q.     T. S  X  X
--L--L--------10------11------L-------10-|
--L--L--------11------13------L-------11-|
--L--L--------10------12------L----10----|
-----------------------------------------|
-----------------------------------------|
-----------------------------------------|


         3
  Q.     S S X  E.   T.S  T T  S.T  X  X
--L------L-----11---11---11---11------10-|
--L------L-----13---13---13---13------11-|
---------------12------------------10----|
-----------------------------------------|
-----------------------------------------|
-----------------------------------------|


  E  X. X T  S S  T T  S.T  X  E  T.  S S  T X  S S X  X
--L--L------10---10---10------11-----11---11---11-----11-|
--L--L------11---11---11------13-----13---13---13-----13-|
---------------------------12-------------------------12-|
---------------------------------------------------------|
---------------------------------------------------------|
---------------------------------------------------------|


     3
  S. X S.  S.S X  Q     T T  T S X  T T  E  X  X
--L-------10-----11----11---11-----11---11--L----|
--L-------11-----13----13---13-----13---13--L----|
--L-------10-----12---------------------------12-|
-------------------------------------------------|
-------------------------------------------------|
-------------------------------------------------|


            3                                                        3
  S X. X T  X  X T  S S  T X  X  E   X  T S X  T.X  X  X S.  T T  E  X
--------------11---11---11------11--------------------11----11---11---
-----------13------13---13------13-----13-----13---13-------13---13--L
--L-L------12------12---12---12-----12--------12---12-------12---12---
----------------------------------------------------------------------
----------------------------------------------------------------------
----------------------------------------------------------------------


                                                               3
  X  S T.  T T  X  T S X  T T  E  X  S.X  T T  T.S X  T T  E   X
------------------11-----11---11--L------11---11-----11---11-----|
--L-------13---13--------13---13--L------13---13-----13---13-----|
----12----12---12--------12---12----12---12---12-----12---12--12-|
-----------------------------------------------------------------|
-----------------------------------------------------------------|
-----------------------------------------------------------------|


  3                                                       3
  E  T  T.X  X  T S X  T T  E   S.T  T.X  T.S X  T T  E   X
-------11------11-----11---11-------11---11-----11---11-----|
-------13---13--------13---13-------13---13-----13---13-----|
--L----12---12--------12---12--12---12---12-----12---12--12-|
------------------------------------------------------------|
------------------------------------------------------------|
------------------------------------------------------------|


  3            3  3
  E  Q.     X  T  T  T.S  T T  S.T  T.X T. S X
--------------------11---11---11---10---8------|
-----------------13------13---13---------------|
--L-----------12-------------------------------|
-----------------------------------------------|
-----------------------------------------------|
-----------------------------------------------|


   Q.     T.  T T.  S S  T.X  E  S S. T
--11---------------10---10---10--8-6----|
--13---------11----11---11---11---------|
----------------------------------------|
----------------------------------------|
----------------------------------------|
----------------------------------------|


                      3                             3
  T T S T. X S E  S X X T  S S  T T  S.T  T.X T. S  T
--------6----8-6--------8-11---11---11---10---8----11-|
--8---8---------------8--------13---13-------------13-|
------------------------------------------------------|
------------------------------------------------------|
------------------------------------------------------|
------------------------------------------------------|


          3
  Q    S. X S  T T  X  S S  T T  S.X X S S. T X
--L----L--------------10---10---10-L---8-6------|
--L----L--L---11---11------11---11------------8-|
------------------------------------------------|
------------------------------------------------|
------------------------------------------------|
------------------------------------------------|


  X. X T S T. X T. X Q.     T. T T T S. X S. T X
-----------6----8----6------L-------------6----8-|
--L------8-----------------------8---8-----------|
-------------------------------------------------|
-------------------------------------------------|
-------------------------------------------------|
-------------------------------------------------|


  X. X T S X T. T. T S. X S X T. T. X S. T T. T S. X S. T X
--L------8-L----6---------6-L----8----8----6---------6------|
---------------------8-----------8----8---------8---------6-|
------------------------------------------------------------|
------------------------------------------------------------|
------------------------------------------------------------|
------------------------------------------------------------|


  3
  S X T. X T. X T. X S. T S. T E  T. T T T S. X S. T X
------3----1----3----1---------3--L----3---3----6----8-|
--L-----------------------4----4--L--------------------|
-------------------------------------------------------|
-------------------------------------------------------|
-------------------------------------------------------|
-------------------------------------------------------|


  3
  S X S. T T. T S. X S X T. T. X S S T. T S X T S X T. X
--L---8----6---------6-L----8----8---6----------6-L------|
----------------8-------------------------8-L------------|
-------------------------------------------------------8-|
---------------------------------------------------------|
---------------------------------------------------------|
---------------------------------------------------------|


  X. X T T. X T T T. T S. X S. T S. X S X T T S X T. S X T. X
------------------------------------------3---3-L----6-L----8-|
---------6--------6-----------------------------------------8-|
--L-----------8--------8----7----5--L-------------------------|
--------------------------------------------------------------|
--------------------------------------------------------------|
--------------------------------------------------------------|


                                                       3
  X. X T S. T T. T S. X S. T T. X S. T T. T S X T S. X T
--L------8----6---------6----8----8----6----------6------|
--L------8---------8---------8----8---------8-L--------6-|
---------------------------------------------------------|
---------------------------------------------------------|
---------------------------------------------------------|
---------------------------------------------------------|


  X. X X T. T T. X T. T S X T S. T E  T T T T S. T T. T T. X
---------3----1----3----1-L--------3--L---3---3----6--7----8-|
--L--L------------------------4----4--L----------------------|
-------------------------------------------------------------|
-------------------------------------------------------------|
-------------------------------------------------------------|
-------------------------------------------------------------|


  X. X T S. T. T. X S. X S X T. T. X S S T. X S S S X T. X
--L------8-----6---------6-L----8----8---6--------6-L------|
--------------------8-------------------------8------------|
---------------------------------------------------------8-|
-----------------------------------------------------------|
-----------------------------------------------------------|
-----------------------------------------------------------|


  X. X T T. X T T T. T S. X S X T E  T T. S S T X X S S X
------------------------------------------3---3-----3-----|
---------6--------6-----------------------4---4---4-------|
--L-----------8--------8----7-L---5--L----5---5---5-------|
----------------------------------------------------------|
----------------------------------------------------------|
----------------------------------------------------------|


     3                                 3       3
  T. X T T S. T S. T. S. X E  X  T.E.  X  S T. X
-------3---3----5-----7--L----8-11-------11------|
----------------------0-------8--------8-13------|
-------0---0-------------------------------------|
----------------7--------------------------------|
-------------------------------------------------|
-------------------------------------------------|


                                                          3
  S X  S  S  S  S  S  S X T.  S.X  X  T T  S T.  S  T S.  X
------11-------11--------------------10---10----10-10----15-|
---------13-------13--------------11------11----11-11----16-|
------------13-------13-L----10---10------10----10----------|
------------------------------------------------------------|
------------------------------------------------------------|
------------------------------------------------------------|


  3
  T T  S S  T T  S S  T T  E  T T  S E  T  X  E  X. X
--L---15---13---13---11---11--L---11---------11--L--L-|
--L---16---15---15---13---13--L---13---------13--L----|
----------------------------------12------12----------|
------------------------------------------------------|
------------------------------------------------------|
------------------------------------------------------|


         3
  X S  T.X S T.  S S S. T  S.T  T.X  X  S S  T. S.T.
------11-9-8----11-8-----------10------10---10-10----|
-------------9-------9---------11------11---11-11----|
--------------------------10---10---10------10-10----|
-----------------------------------------------------|
-----------------------------------------------------|
-----------------------------------------------------|


  T T S T. X T. X Q.     S. X  S  S  S S  X
--------6----8----6-----------11------------|
--8---8------------------8--L----11------11-|
------------------------------------12---12-|
--------------------------------------------|
--------------------------------------------|
--------------------------------------------|


                         3               3  3
   E  T. S  X  E  T S X  X  Q.     X S.  X  X
--11--L-------10--L--------11------L-------11-|
--------------11--L--------13--------------11-|
-----------10-----------12--------------12----|
----------------------------------------------|
----------------------------------------------|
----------------------------------------------|


             3                           3
  E  T. X S  X  E  T. S X  Q.     T S X  X  X
--L--L---------10--L------11------L--------11-|
--L--L--L------11--L----8-13------L--------11-|
------------10--------------------------12----|
----------------------------------------------|
----------------------------------------------|
----------------------------------------------|


  3       3                           3
  Q    S  X  E  T S X X  Q.     T. S  X  X
--L---------10--L-------11------L-------10-|
--L---------11--L-----8-13------L-------11-|
---------10--------------------------10----|
-------------------------------------------|
-------------------------------------------|
-------------------------------------------|


  Q.     X S X X  Q.     T S X  X  X
--L------L-------11------L--------11-|
--L------------8-13------L--------11-|
-------------------------------12----|
-------------------------------------|
-------------------------------------|
-------------------------------------|


                       3
  E  T. S  X  E  T. T. X X  Q.     T S X  X  X
--L--L-------10--L-------8-11------L--------11-|
--L--L-------11--------8-----------------11----|
----------10-----------------------------12----|
-----------------------------------------------|
-----------------------------------------------|
-----------------------------------------------|


        3
  E  T. X S  E.  S  E.  X Q    T.  X
--L--L------10-----11-------------11-|
------------11-----13-------------11-|
------------10-----12---L---------12-|
-------------------------------------|
-------------------------------------|
-------------------------------------|


        3           3              3
  E  T. X S  E.  S  X  Q.     S T. X
--L--L------10--------11------L------|
--L--L------11--------13------L------|
--L--L------10-----12----------------|
-------------------------------------|
-------------------------------------|
-------------------------------------|


     3
  X  X  Q.     T S X  Q.     X S. X
-------10------L-----11-------------|
-------11----------8-13------L------|
----10------------------------------|
------------------------------------|
------------------------------------|
------------------------------------|


  S X  T T  S T.  S S S X E  T.  S E  T  X  S X S
----------------------7-L-------11---------11-----|
-----------------10---0---------13---------13-L---|
------12---12-------------------12------12--------|
--------------------------------------------------|
------10---10----12-------------------------------|
--------------------------------------------------|


  S  S  S  T. S  S  S.T.  S.T  T T  S S  T X  T S. X
----11-------11---------------10---10---10---10------|
-------13-------13------------11---11---11---11------|
----------13-------13----10--------------------------|
-----------------------------------------------------|
-----------------------------------------------------|
-----------------------------------------------------|


   T T  S T.  T T  S S  T T  S. S.X  S.E  X  S.T.
--15---15----13---13---11---11------11------11----|
--16---16----15---15---13---13------13------13----|
-------------------------------12-L---------12----|
--------------------------------------------------|
--------------------------------------------------|
--------------------------------------------------|


  S  S  S  S  S  S  S T.  S.T  T.T  S S  T X  S.T X
----11-------11---------------10---10---10---10-----|
-------13-------13------------11---11---11---11---8-|
----------13-------13----10---10---10---10---10-----|
----------------------------------------------------|
----------------------------------------------------|
----------------------------------------------------|


  X T S X S  T. E   E  T T.  T T  E   E   T S X  X
----------6-11-----------------------11---------11-|
--L---8-L------11------------------------11-----11-|
-------------------12--L----12---12-------------12-|
---------------------------------------------------|
---------------------------------------------------|
---------------------------------------------------|


                 3                 3
  E.  S  E.  T.  X  Q.     T S  X  T
--L-----10---------11------L------11-|
--L-----11---------13-------------11-|
--L-----10------12-------------12----|
-------------------------------------|
-------------------------------------|
-------------------------------------|


  3                   3              3
  Q    S X  E  T S X  X  Q.     S S  X
--L--------10--L--------11------L------|
--L--------11--L--------13------L------|
-----------10--L-----12-------------12-|
---------------------------------------|
---------------------------------------|
---------------------------------------|


                      3
   E.  X T.  E  T. S  X  Q.     S T.  X  X
--11---L----10--L-------11------L-------10-|
--11--------11--L-------13------L-------11-|
------------10--L----12--------------10----|
-------------------------------------------|
-------------------------------------------|
-------------------------------------------|


         3   3              3
  Q.     S S X  Q.     S S  X
--L------L-----11------L---11-|
--L------L---8-13------L---11-|
---------------------------12-|
------------------------------|
------------------------------|
------------------------------|


                        3
  E  T. X S  X  E  T. S X  Q.     T. S  X
--L--L---------10--L------11------L-------|
--L--L--L---11----------8-13------L----11-|
--L--L--L---10-------------------------12-|
------------------------------------------|
------------------------------------------|
------------------------------------------|


   E.  S  E  T. S  X  Q.     S S     E.  S  E.  S  Q.     T. S  X
--11-----10--L-------11------L---|--11-----10-----11------L-------|
---------11--L-------13------L---|--11-----11-----13------L----11-|
---------10--L----12-------------|--12-----10-----12------L----10-|
---------------------------------|--------------------------------|
---------------------------------|--------------------------------|
---------------------------------|--------------------------------|


   Q.     T. S X  E  X T  T.S X  T T  S.T  X
--10------L------11--L---11-----11---11---10-|
---------------8-13--L---13-----13---13---11-|
------------------------------------------10-|
---------------------------------------------|
---------------------------------------------|
---------------------------------------------|


  E.   S S  T T  S.E.  T  T T  S S  T.S X
--L---10---10---10------------------------|
--L---11---11---11-----------------11-----|
--L----------------------12---12----------|
------------------------------------------|
------------------------------------------|
------------------------------------------|


   T T  S S  T T  S S  S T.  T T.  S T.  T T.  S T.  S X T.  X
---------------------------------------------------------------|
--13---13---11--------11----13----13----11----------11-L-------|
-----------------12---------------------------12------------10-|
---------------------------------------------------------------|
---------------------------------------------------------------|
---------------------------------------------------------------|


                              3
  X T T T  T T. T T  S.X S. X X E  T T. T T S. T S T T X
-------------------------------------------------6-7-----|
------8---------8-------------7-8--L----8---8------------|
--L-------10--------10---8-------------------------------|
---------------------------------------------------------|
---------------------------------------------------------|
---------------------------------------------------------|


  3                                                   3
  X T T S. X T. T S T. S X T. T T S X T. T T S S S T. T
----8---8----6---------6-L----8---8-L----6-------6------|
------------------8--------------------------8----------|
------------------------------------------------------8-|
--------------------------------------------------------|
--------------------------------------------------------|
--------------------------------------------------------|


  3
  X T T T T T T T. S. T S X T. S. X S X T T T. S S S X X
----------------------------------------3---3----6-----8-|
------6-------6------------------------------------------|
--L-------8--------8----7-L----5--L----------------------|
---------------------------------------------------------|
---------------------------------------------------------|
---------------------------------------------------------|


  X. X T S S T T. S T. T T S X T T S T. T T. S T. S X T. X
--L------8---6---------6-7-----8---8----6---------6-L------|
------------------8--------------------------8-----------6-|
-----------------------------------------------------------|
-----------------------------------------------------------|
-----------------------------------------------------------|
-----------------------------------------------------------|


  X. X T T T T T. T T S X T S. T  E  T T. T T S X T S. T X
---------3---1----3---1-L---------------------------6------|
--L-------------------------4-----8--L----8---8-L----------|
---------------------------------11------------------------|
-----------------------------------------------------------|
-----------------------------------------------------------|
-----------------------------------------------------------|


  3
  X T T S X T T. T S T. T T S T T. S T. T T. S T. S X T. X
----8---8-L---6---------6-7---8----8----6---------6-L------|
-------------------8-------------------------8-------------|
---------------------------------------------------------8-|
-----------------------------------------------------------|
-----------------------------------------------------------|
-----------------------------------------------------------|


  X. X T T T T T T T S S S X T. S. X S X T T S S S S X
-----------------------------------------3---3---6---8-|
---------6-------6-------------------------------------|
--L----------8-------8---7-L----5--L-------------------|
-------------------------------------------------------|
-------------------------------------------------------|
-------------------------------------------------------|


  X. X T S X T. T T S S S S T T S T. T T. S S S S X
--L------8-L----6-------6---8---8----6--------6-----|
--------------------8---------------------8-------6-|
----------------------------------------------------|
----------------------------------------------------|
----------------------------------------------------|
----------------------------------------------------|


  X. X T T T T T T T S X T. S. T  E  X T. T T S X T. S X T. X
---------3---1---3---1-L-----------------------------6-L----8-|
--L-------------------------4-----8--L----8---8-L-------------|
---------------------------------11---------------------------|
--------------------------------------------------------------|
--------------------------------------------------------------|
--------------------------------------------------------------|


  X. X T S S T. X S S S X T. T T S T. T T. S S S S X
--L------8---6--------6-L----8---8----6--------6-----|
------------------8------------------------8---------|
---------------------------------------------------8-|
-----------------------------------------------------|
-----------------------------------------------------|
-----------------------------------------------------|


  X. X T T T T T T T S T. S S S. X S. T T T. S X T. S X X
--------------------------------------3---3------6------8-|
---------6-------6----------------------------------------|
--L----------8-------8----7---5--L------------------------|
----------------------------------------------------------|
----------------------------------------------------------|
----------------------------------------------------------|


  X. X T S S T T S S S S T T S S T T T. S X S S X
--L------8---6-------6---8---8---6----------6-----|
-----------------8-------------------8----------6-|
--------------------------------------------------|
--------------------------------------------------|
--------------------------------------------------|
--------------------------------------------------|


  X. X T T T T T T T S X T. S. T  E  X S T T S X T S X T. X
---------3---1---3---1-L---------------------------6-L----8-|
--L-------------------------4-----8--L---8---8-L------------|
---------------------------------11-------------------------|
------------------------------------------------------------|
------------------------------------------------------------|
------------------------------------------------------------|


  X. X T S X T. T T S S S X T. T T S. T T T S T. S. T. X
--L------8-L----6-------6-L----8---8----6--------6-------|
--------------------8-----------------------8------------|
-------------------------------------------------------8-|
---------------------------------------------------------|
---------------------------------------------------------|
---------------------------------------------------------|


  X. X X T T T T T. T S X T S X T. E  X T. T T S S S X S X
-------------------------------------------3---3---6-L---8-|
---------6-------6-----------------------------------------|
--L----------8--------8-L---7-L----5--L--------------------|
-----------------------------------------------------------|
-----------------------------------------------------------|
-----------------------------------------------------------|


  X. X T S X T. T T S X T. S X T. T T S. T T. T S X T S S X
--L------8-L----6----------6-L----8---8----6----------6-----|
--------------------8-L-------------------------8-L-------6-|
------------------------------------------------------------|
------------------------------------------------------------|
------------------------------------------------------------|
------------------------------------------------------------|


     3                                      3
  T. X S T. T S S. X S. X T S. S T. X E  E  T
-------3-1----3-1---------2-3----3----3--6--8-|
--L------------------4--L---------------------|
----------------------------------------------|
----------------------------------------------|
----------------------------------------------|
----------------------------------------------|


  3
  X T. S. X S X S. X E  T T E  T. Q    T
--L----8----6-L------6--L---8--L---------||
-----------------------------------------||
-----------------------------------------||
-----------------------------------------||
-----------------------------------------||
-----------------------------------------||




Duration Legend
---------------
W - whole
H - half
Q - quarter
E - 8th
S - 16th
T - 32nd
X - 64th
. - note dotted
|-n-|  - n-tuplets


Tablature Legend
----------------
L - tied note
x - dead note
g - grace note
(n) - ghost note
> - accentuded note
NH - natural harmonic
AH - artificial harmonic
TH - tapped harmonic
SH - semi harmonic
PH - pitch harmonic
h - hammer on
p - pull off
b - bend
br - bendRelease
pb - preBend
pbr - preBendRelease
brb - bendReleaseBend
n/ - tremolo bar dip
n - tremolo bar dive
-/n - tremolo bar Release up
/n - tremolo bar inverted dip
/n - tremolo bar return
-n - tremolo bar Release down
S - shift slide
s - legato slide
/ -  slide into from below or out of upwards
 -  slide into from above or out of downwards
~ - vibrato
W - wide vibrato
tr - trill
TP - tremolo picking
T - tapping
S - slap
P - pop
< - fade in
^ - brush up
v - brush down




Esta es una transcripcion personal de un usuario de www.letrasyacordes.net - El material contenido en esta pagina es para exclusivo uso privado, quedando prohibida su reproduccion o retransmision, asi como su uso con fines comerciales.
Poné el link en tu página o en foros!!!!
Para MySpace:
Para Foros:
musica y amigos
Compartí con tus amigos esta canción en tu Facebook
Articulo Destacado: Mantenimiento de la Guitarra - Cuidados Generales

 

 
fuente
 
Letras y Acordes punto net, el mejor sitio para encontrar y compartir letras de canciones, con sus correspondientes acordes para guitarra y piano. Registrate en nuestro foro y enterate cómo agregar tus propias transcripciones. No te olvides de votar para calificar la calidad de las letras
Palabras utilizadas para encontrar esta página:
Grupo Nectar, ARBOLITO, letra de ARBOLITO de Grupo Nectar, letras, letra, acordes, canciones, letras de cancion, lyrics, cancion, grupo, banda, cantante, tablatura, partitura, tocar con guitarra, tocar con piano, tocar con bajo, armónica, teclado, bajo, ejecutar, estudiar música
Ver más canciones de :

Grupo Nectar


 
{c} 2007 / 2011 - letrasyacordes.net