Letras y Acordes |  Acordes |  Afinador |  IMC |  num A B C D E F G H I J K L M N O P Q R S T U V W X Y Z 
 

 

ME DIJO - Alex Campos  

Links Patrocinados / Anuncios:

una_columnados_columnasaumentar_letrareducir_letravista_scrollver_impresionver_impresion_con_acordes | votar: +++++++++- | Puntaje actual: 9.13

Links Patrocinados

Links Patrocinados

calculadora de indice de masa corporal IMC

Links Patrocinados




Diccionario de Nombres

Intro:
D:----------------------------------------------2-5-2—-2-5-2--
A:-----5-8-5---5-8-5--------2-5-2—-2-5~-2---3x4------3------3-
E:-6x4-------6-------6—-3x4------3--------3-------------------

----7-10-7------|
-8x4------8-8-8-|
----------------|

Aquí entran las trompetas:
D:--------------------------------------------
A:----5-7-5----5-7~-5--------2-5-2---2-5~-2---
E:-6-6------6-6-------6—-3-3-------3-------3—-

-----2-5-----3-5-7-5-----7-10-7---7-10-7-----|
-3-3-----3-5--------7—8-8------8-8-------8-5-|
---------------------------------------------| x2

Estrofa I: (Solo sigue las notas)

A#
Quiero decirlo cantando
              G             A-D
Lo que aquel día allí me paso
  C
Estaba solito y muy triste
             D#            F
Cuando de repente el apareció.

Hola como estas me miro
Y acercándose no lo podía creer
Era el creador de los cielos
El fuerte el eterno el Gran Yo Soy.

Pre-coro: A#-G-D#-F

Coro:
A#
Me dijo sonriendo
Tú eres mi deseo
G
Tú eres lo que yo más quiero
Sin ti yo me desespero
      D#
Me dijo eres mi luna
Eres mi cielo
  F
Eres poesía
Eres todos mis sueños


A#
Tu mi reflejo tu mi anhelo
      G
Eres todo lo que quiero yo por ti muero
D#
Nada es completo si no te tengo
F
Di por ti la vida para que hoy seas eterno.

Post-Coro:
D:--------------------------------------------
A:----5-7-5----5-7~-5--------2-5-2---2-5~-2---
E:-6-6------6-6-------6—-3-3-------3-------3—-

-----2-5-2-----3-5-7-5-----7-10-7---7-10-7-----|
-3-3-------3-5--------7—8-8------8-8-------8-5-|
-----------------------------------------------|

Estrofa II:

Quiero decirlo cantando
Lo que aquel día allí me paso
Conocí a mi Cristo mi amigo
Mi papi al todopoderoso

Seguiré cantando y gritando
Que el mundo me diga que loco estoy
Loco por amor el amor que el me dio
Y que traigo en esta canción.

*Pre-coro.
*Coro.
*Estrofa II.
*Pre-coro.

Este es solo el bajo, si tienes algo que corregir, por favor a mi correo
dios_mohamed@yahoo.com, acepto todo.




Esta es una transcripcion personal de un usuario de www.letrasyacordes.net - El material contenido en esta pagina es para exclusivo uso privado, quedando prohibida su reproduccion o retransmision, asi como su uso con fines comerciales.


Letras y Acordes punto net, el mejor sitio para encontrar y compartir letras de canciones, con sus correspondientes acordes para guitarra y piano. No te olvides de votar para calificar la calidad de las letras
Palabras utilizadas para encontrar esta página:
Alex Campos, ME DIJO, letra y acordes de ME DIJO de Alex Campos, canciones de Alex Campos, tocar con guitarra ME DIJO, tocar con piano ME DIJO, estudiar música
Ver más canciones de :

Alex Campos


 
{c} 2016 - letrasyacordes.net