Letras y Acordes |  Acordes |  musica y amigos |  Afinador | 
 
num  A  B  C  D  E  F  G  H  I  J  K  L  M  N  O  P  Q  R  S  T  U  V  W  X  Y  Z  

 

La pelotona - El Cartel de Santa  

Links Patrocinados / Anuncios:

una_columnados_columnasaumentar_letrareducir_letravista_scrollver_impresionver_impresion_con_acordes | votar: ++++++++-- | Puntaje actual: 8.19

Links Patrocinados

Links Patrocinados

calculadora de indice de masa corporal IMC

Links Patrocinados




Diccionario de Nombres



INTRO
e-----------------------------------
B-------0---------------0---------0-
G---------0-----0-------------0-5---
D-7/9-9-------5-------7-------------
A-----------7-----7/9-------7-------
E-------------------------7---------

VERSOS
e---------0---------------------------
B-------0---0-------------0---------0-
G-----------------0-------------0-5---
D-7/9-9---------5-------7-------------
A-------------7-----7/9-------7-------
E---------------------------7---------


CORO
e---------0---------------------------
B-------0---0-------------0---------0-
G-----------------0-------------0-5---
D-7/9-9---------5-------7-------------
A-------------7-----7/9-------7-------
E---------------------------7---------

e---------
B---------
G-7-6h7-4-
D--------- Este es el arreglo
A---------
E---------

e---------7---7--------0---0---0-------------------------0---0---
B-------8---8--------0---0---0---0------0---0---0----------0---0- NOTA :
G-----9---9-----------------------------9---9---9---------------- EN EL 2DO CORO HAY UNA PARTE QUE
D---9---9-------------------------------9---9---9---------------- DESPUES DE RASGUEAR EL MI MENOR
A------------------7------------------7---7---7---7----7--------- SE RASGUEA EL RE SOSTENIDO MENOR
E-7--------------7------------------7----------------7-----------

e-----0-2-0-2-0-2-0-
B---0---------------
G-0-----------------
D-------------------
A-------------------
E-------------------





Esta es una transcripcion personal de un usuario de www.letrasyacordes.net - El material contenido en esta pagina es para exclusivo uso privado, quedando prohibida su reproduccion o retransmision, asi como su uso con fines comerciales.


Articulo Destacado: Un video de un muchacho virtuoso

 
Una verdadera joyita lo que hace este muchacho con la guitarra
 
Letras y Acordes punto net, el mejor sitio para encontrar y compartir letras de canciones, con sus correspondientes acordes para guitarra y piano. Registrate en nuestro foro y enterate cómo agregar tus propias transcripciones. No te olvides de votar para calificar la calidad de las letras
Palabras utilizadas para encontrar esta página:
El Cartel de Santa, La pelotona, letra de La pelotona de El Cartel de Santa, letras, letra, acordes, canciones, letras de cancion, lyrics, cancion, grupo, banda, cantante, tablatura, partitura, tocar con guitarra, tocar con piano, tocar con bajo, armónica, teclado, bajo, ejecutar, estudiar música
Ver más canciones de :

El Cartel de Santa


 
{c} 2007 / 2011 - letrasyacordes.net