Letras y Acordes |  Acordes |  Afinador |  IMC |  num A B C D E F G H I J K L M N O P Q R S T U V W X Y Z 
 
ÔĽŅ
 

FOLLOW THE SON - Hillsong United  

Links Patrocinados / Anuncios:

una_columnados_columnasaumentar_letrareducir_letravista_scrollver_impresionver_impresion_con_acordes | votar: ++++++---- | Puntaje actual: 6.00

Links Patrocinados

Links Patrocinados

calculadora de indice de masa corporal IMC

Links Patrocinados




Diccionario de Nombres

¬°Estos son las etiquetas para varias partes de Siguen al Hijo,
del √°lbum de Hillsong Poderoso Ahorran!
Tabbed Por: ¬°Jeremy Esta canci√≥n es GUITARRA CONDUCIDA!
¬°Nigel (el guitarrista de plomo(ventajoso) de Hillsong) usa una mezcla
de efectos,
pero usted puede arreglarse simplemente la distorsi√≥n
y el retraso, alcanzar un efecto similar!
Despu√©s de la mirada del taller de guitarra de Nigel,
estos son lo que he entendido(calculado).

¬°El solo para el VERSO INTRO/(Esta parte es dif√≠cil!)
' Distorsi√≥n Pesada y Retraso '
e|-9---7---9---10---9-----9-7----------------------------|
b|---9---8---9----9---9-------8--------------------------|
g|----------------------9-------9------------------------|
D|-------------------------------------------------------|
A|-------------------------------------------------------|
E|-------------------------------------------------------|

TIMON la Segunda Parte de Guitarra de KLEIN para el VERSO INTRO/
(Esto comienza la canci√≥n
y es jugado los versos mientras Nigel juega su parte, encima)
e|-----------------0-0-----------------------------------|
b|-----------------0-0-----------------------------------|
g|-6-6-4-4-6-6-----1-4-----------------------------------|
D|-x-x-x-x-x-x-6-6-2-4-----------------------------------|
A|-4-4-2-2-4-4-x-x-2-2-----------------------------------|
E|-x-x-x-x-x-x-4-4-0-0-----------------------------------|

¬°¬°La Parte de Coro de Nigel (Esta parte es imponente y
F√ĀCIL!! ¬°) Esto simplemente
desliza el acorde "D" arriba y abajo!
e|- 9-(x8)-4-(x8)-11-(x8)-12-(x4)-11-(x4)----------------|
b|-10-(x8)-5-(x8)-12-(x8)-12-(x4)-12-(x4)----------------|
g|- 9-(x8)-4-(x8)-11-(x8)-11-(x4)-11-(x4)----------------|
D|-------------------------------------------------------|
A|-------------------------------------------------------|
E|-------------------------------------------------------|

¬°¬°Esta Parte es jugada despu√©s de que el coro cu√°ndo ellos cantan
(" Usted est√° todo a m√≠ ") All√≠ 2 partes
de guitarra que armonizan incre√≠blemente juntos!!

La Parte de SOLO DE NIGEL (la parte usted sobre todo se entera)
e|-12-12-11-11-12-12-----------12---11-h12-11------------|
b|-------------------10-10-9-9----9----------------------|
g|-------------------------------------------------------|
D|-------------------------------------------------------|
A|-------------------------------------------------------|
E|-------------------------------------------------------|

TIMON la Segunda Parte de ARMON√ćA de Guitarra de KLEIN
e|-------------------------------------------------------|
b|-------------------------------------------------------|
g|-------------------------------------------------------|
D|-------------------------------------------------------|
A|-4-4---------4-4-7-7-7-7-2-2-2-2-----------------------|
E|-----4-4-5-5-------------------------------------------|

El Puente consiste en Nigel y Timon "la persecuci√≥n"
el uno del otro.
Los acordes son: A, C*m, E, B (cada nota jugada dos veces)
¬°¬°Esto es la primera vez que alguna vez he escrito
una etiqueta, tan si estropeara la notaci√≥n, avisada!!
¬°Suerte!
¬°La pr√°ctica cada parte en la mitad se apresura primero!
¬°Estos son para la llave de E, entonces usted puede jugar con
la versi√≥n de Hillsong!




Esta es una transcripcion personal de un usuario de www.letrasyacordes.net - El material contenido en esta pagina es para exclusivo uso privado, quedando prohibida su reproduccion o retransmision, asi como su uso con fines comerciales.


Letras y Acordes punto net, el mejor sitio para encontrar y compartir letras de canciones, con sus correspondientes acordes para guitarra y piano. No te olvides de votar para calificar la calidad de las letras
Palabras utilizadas para encontrar esta p√°gina:
Hillsong United, FOLLOW THE SON, letra y acordes de FOLLOW THE SON de Hillsong United, canciones de Hillsong United, tocar con guitarra FOLLOW THE SON, tocar con piano FOLLOW THE SON, estudiar m√ļsica
Ver m√°s canciones de :

Hillsong United


 
{c} 2016 - letrasyacordes.net