Letras y Acordes |  Acordes |  musica y amigos |  Afinador | 
 
num  A  B  C  D  E  F  G  H  I  J  K  L  M  N  O  P  Q  R  S  T  U  V  W  X  Y  Z  

 

DRAGON BALL GT - MI CORAZ驨 ENCANTADO - M鷖ica de TV  

Links Patrocinados / Anuncios:

una_columnados_columnasaumentar_letrareducir_letravista_scrollver_impresionver_impresion_con_acordes | votar: ++++++++-- | Puntaje actual: 8.18

Links Patrocinados

Links Patrocinados

calculadora de indice de masa corporal IMC

Links Patrocinados




Diccionario de Nombres

ACORDES:> C G Am Em

AQUI ESTA LA TAB DE DRGON BALL GT ESTE
ES EL PEDAZO Q VA DESPUES DE LA CANCION DEL COMIENZO

e|--3𦠨𥹓---5𦠩---0------00---------0--1--0----------------|
B|--------------------------3---------1--3---------3--1--0--------|
G|------------------------------------------------------------2--2|
D|----------------------------------------------------------------|
A|----------------------------------------------------------------|
E|----------------------------------------------------------------|

e|----------5-h3--3------------------------------------------------|
B|----------------------3----3----5--6---5---3----1---5---6-p-5---3-|
G|-22--5------------------------------------------------------------|
D|-------------------------------------------------------------------|
A|-------------------------------------------------------------------|
E|-------------------------------------------------------------------|

e|--3𦠨𥹓---5𦠩---0------00---------0--1--0----------------|
B|--------------------------3---------1--3---------3--1--0--------|
G|------------------------------------------------------------2--2|
D|----------------------------------------------------------------|
A|----------------------------------------------------------------|
E|----------------------------------------------------------------|

e|----------5-h3-3----------------------------------------------------|
B|--------------------3-----3-----5--6---5---3----1---5---3---1--0--1--|
G|-2-2--5--------------------------------------------------------------|
D|----------------------------------------------------------------------|
A|----------------------------------------------------------------------|
E|----------------------------------------------------------------------|

e|-------8---8---8---8---8----6----4----6----8-----6---|
B|--1--------------------------------------------------|
G|-----------------------------------------------------|
D|-----------------------------------------------------|
A|-----------------------------------------------------|
E|-----------------------------------------------------|

e|--6---6---6---6----6--4---3---4----6------4----|
B|-----------------------------------------------|
G|-----------------------------------------------|
D|-----------------------------------------------|
A|-----------------------------------------------|
E|-----------------------------------------------|

e|--4--4--4-----4-3-------3------------------------------|
B|---------------------6-------6-----6-----4-----6-/8----|
G|-------------------------------------------------------|
D|-------------------------------------------------------|
A|-------------------------------------------------------|
E|-------------------------------------------------------|

ESPERO Q LES GUSTE
NO ESTA COMPLETA PERO ESTEE ES EL PEDAZO MAS VACANO
CUALQUIER DUDA O CORRECCION MI CORREO ES
MAX-POWELL666@HOTMAIL.COM




Esta es una transcripcion personal de un usuario de www.letrasyacordes.net - El material contenido en esta pagina es para exclusivo uso privado, quedando prohibida su reproduccion o retransmision, asi como su uso con fines comerciales.


Articulo Destacado: Mantenimiento de la Guitarra - Cuerdas

 

 
fuente
 
Letras y Acordes punto net, el mejor sitio para encontrar y compartir letras de canciones, con sus correspondientes acordes para guitarra y piano. Registrate en nuestro foro y enterate c髆o agregar tus propias transcripciones. No te olvides de votar para calificar la calidad de las letras
Palabras utilizadas para encontrar esta p醙ina:
M鷖ica de TV, DRAGON BALL GT - MI CORAZ驨 ENCANTADO, letra de DRAGON BALL GT - MI CORAZ驨 ENCANTADO de M鷖ica de TV, letras, letra, acordes, canciones, letras de cancion, lyrics, cancion, grupo, banda, cantante, tablatura, partitura, tocar con guitarra, tocar con piano, tocar con bajo, arm髇ica, teclado, bajo, ejecutar, estudiar m鷖ica
Ver m醩 canciones de :

M鷖ica de TV


 
{c} 2007 / 2011 - letrasyacordes.net