Letras y Acordes |  Acordes |  Afinador |  IMC |  num A B C D E F G H I J K L M N O P Q R S T U V W X Y Z 
 

 

UN ANGEL LLORA - Annette Moreno  

Links Patrocinados / Anuncios:

una_columnados_columnasaumentar_letrareducir_letravista_scrollver_impresionver_impresion_con_acordes | votar: ++++++++-- | Puntaje actual: 8.08

Links Patrocinados

Links Patrocinados

calculadora de indice de masa corporal IMC

Links Patrocinados




Diccionario de Nombres

ACORDES:> Em Am C B7 D G B Gsus

Hola a todos les aseguro que esta rola tiene un 96% de
efectividad el otro 4% se los debo, es que todavía estoy
empezando en esto de la guitarra y como soy nuevo ustedes
comprenderán.

Hay si tienen algo pa toca mejor la guitarra me lo envian
 al correo maxi_tauro@hotmail.com

Intro:

          Em              Am        C
e/----3-2-2-0-2-0----------------0-2-2h3-3-3-3-3-
B/-----------------3/5-3/5-3-1-------------------
G/-4---------------------------------------------
D/-----------------------------------------------

       B7               Em
e/----0-3-2-2-2-2-----2-3-2-
B/--------------------------
G/-4----------------4-------
D/--------------------------


     Em
Las flores ya no llegan
    Am
El poema se acabo
     D
Lo que un dia fue amor
        G          B
En amargura se volvio

E/-5-3-2---------2-2h3-
B/----------5-4-5------
G/---------------------


Em
Ella quiere  reresar
    Am
El tiempo que paso

e/-8-8-
B/-----

  B
Para poder revivir

Los placeres del ayer


      Em    Am       D     G
Ya no puede ver las cosas igual

e/-7h8-7-5---------
B/---------8-7h8-5-

    C                        B
Por que en el mar de olvido todo ya quedo

e/-----------
B/-5-4-5-7-8-
      Em      Am         D        G       Gsus
Ya el océano ha perdido su color azul


               G
Las estrellas miran

e/-8-8-8-7-
B/---------

             D
La luna la abraza

e/-7-7-7-5-
B/---------

            Em   D   C
Y un Ã¡ngel llora

e/-12-14-15-15-15-14--19-------
B/-----------------------19-17-
G/-----------------------------

e/---------------7-8-7-5-----------
B/-5-7-7h8—5-7-8---------7-8-7h8-5-
G/---------------------------------


  Em
Pasaron ya los años
   Am
Ya el se olvido
    D
De el amor que prometio
   G          B
Cuando la conocio

e/-3-5-3-2--------2-2h3-
B/---------5-4-5--------
G/----------------------


 Em
Entra a la habitacion
         Am
Y en la cama el la avio
  B
Toma su cuerpo frio

La tristeza lo mato

e/-----------------7-8-7-5---11-11-11—-11-9-9-8-8-6-
B/-5h7-5h7-8---7-8----------------------------------
G/--------------------------------------------------

e/-11-11-11—-11-9-9-8-8-6-
B/------------------------
G/------------------------



     Em
Las flores ya llegaron
    Am
El poema empezo
  D
Sobre una tumba fria
    G         B
El llora su dolor

e/-8-8—7-------------7--
B/-------10-8-7h8-10----
G/----------------------


   Em
El solo quiere regresar
     Am
el tiempo que paso
  B
para poder perderse asi

en la hermosura de su voz


      Em    Am       D     G
Ya no puede ver las cosas igual

e/-7h8-7-5---------
B/---------8-7h8-5-

    C                        B
Por que en el mar de olvido todo ya quedo

e/-----------
B/-5-4-5-7-8-

      Em      Am         D        G       Gsus
Ya el océano ha perdido su color azul

e/-9-8----------
B/-----11-9-8-9-


               G
Las estrellas miran

e/-8-8-8-7-
B/---------

             D
La luna la abraza

e/-7-7-7-5-
B/---------

            Em   D   C
Y un Ã¡ngel llora


Las estrellas miran

e/-8-8-8-7-
B/---------

             D
La luna la abraza

e/-7-7-7-5-
B/---------

            Em   D   C
Y un Ã¡ngel llora




Esta es una transcripcion personal de un usuario de www.letrasyacordes.net - El material contenido en esta pagina es para exclusivo uso privado, quedando prohibida su reproduccion o retransmision, asi como su uso con fines comerciales.


Letras y Acordes punto net, el mejor sitio para encontrar y compartir letras de canciones, con sus correspondientes acordes para guitarra y piano. No te olvides de votar para calificar la calidad de las letras
Palabras utilizadas para encontrar esta página:
Annette Moreno, UN ANGEL LLORA, letra y acordes de UN ANGEL LLORA de Annette Moreno, canciones de Annette Moreno, tocar con guitarra UN ANGEL LLORA, tocar con piano UN ANGEL LLORA, estudiar música
Ver más canciones de :

Annette Moreno


 
{c} 2016 - letrasyacordes.net