Letras y Acordes |  Acordes |  musica y amigos |  Afinador | 
 
num  A  B  C  D  E  F  G  H  I  J  K  L  M  N  O  P  Q  R  S  T  U  V  W  X  Y  Z  

 

CHACARERA DEL CARDENAL - Los Carabajal  

Links Patrocinados / Anuncios:

una_columnados_columnasaumentar_letrareducir_letravista_scrollver_impresionver_impresion_con_acordes | votar: ++++++++-- | Puntaje actual: 8.00

Links Patrocinados

Links Patrocinados

calculadora de indice de masa corporal IMC

Links Patrocinados




Diccionario de Nombres

ACORDES:> Bm G Em F# D A7

Este es el punteo del principio de la canción.

1|----10-------------------------------------10-|
2|-7------7s10s8--7s10s8--7s10s8--7s10s8--7-----|
3|----------------------------------------------|
4|----------------------------------------------|
5|----------------------------------------------|
6|----------------------------------------------|
(Realizar el mismo procedimiento 4 veces más)

(Intro)
1|----7--9--10--12--12--12--14--12--|
2|--8----10-11--13--13--13--15--13--|
3|----------------------------------|
4|----------------------------------|
5|----------------------------------|
6|----------------------------------|

1|-10--10--10--12--10--9--9--9--10--9--7-|
2|-11--11--11--13--11--10-10-10-11--10-8-|
3|---------------------------------------|
4|---------------------------------------|
5|---------------------------------------|
6|---------------------------------------|
(repetir intro)

Bm            G
En un monte vecino
 Em        F#
cantó un cardenal
D
y un mediodía de flechas
 A7        D
lo quiso callar,
 Em           Bm
pero tu sol quería
  F#         Bm
volverlo a escuchar.

En un lugar del tiempo
la vida se unió,
junto con la inocencia
en que nace el amor,
los cuerpos no son carne
que regala Dios.

Tierra, bendita tierra
de palos y mar,
esta guerra es eterna,
es furia que va,
que baila por las naciones
donde hay libertad.

Estribillo :
En un monte vecino
cantó un cardenal
y un mediodía de flechas
lo quiso callar,
pero tu sol quería
volverlo a escuchar.

En las calles florece
una juventud
que busca su futuro
donde está tu amor,
mi rebelión te canta
lo que me faltó.

Un beso es solo un beso
y una condición
relámpago que en la noche
a mi niño asustó,
por irme de la guía
quiero tu perdón.

Línea de bailarines
de brazos al sol
se mueven como las ramas
flexibles al viento
pisan descalzo al este
con luz de oración.

Estribillo :
En las calles florece
una juventud
que busca su futuro
donde esta tu amor,
mi rebelión te canta
lo que me faltó.

Desde Bragado, esta es mi segunda transcripción.
Espero que les guste.Saludos




Esta es una transcripcion personal de un usuario de www.letrasyacordes.net - El material contenido en esta pagina es para exclusivo uso privado, quedando prohibida su reproduccion o retransmision, asi como su uso con fines comerciales.


Articulo Destacado: Mantenimiento de la Guitarra - Cuidados Generales

 

 
fuente
 
Letras y Acordes punto net, el mejor sitio para encontrar y compartir letras de canciones, con sus correspondientes acordes para guitarra y piano. Registrate en nuestro foro y enterate cómo agregar tus propias transcripciones. No te olvides de votar para calificar la calidad de las letras
Palabras utilizadas para encontrar esta página:
Los Carabajal, CHACARERA DEL CARDENAL, letra de CHACARERA DEL CARDENAL de Los Carabajal, letras, letra, acordes, canciones, letras de cancion, lyrics, cancion, grupo, banda, cantante, tablatura, partitura, tocar con guitarra, tocar con piano, tocar con bajo, armónica, teclado, bajo, ejecutar, estudiar música
Ver más canciones de :

Los Carabajal


 
{c} 2007 / 2011 - letrasyacordes.net