Letras y Acordes |  Acordes |  Afinador |  IMC |  num A B C D E F G H I J K L M N O P Q R S T U V W X Y Z 
 
´╗┐
 

GUANUQUEANDO - Divididos  

Links Patrocinados / Anuncios:

una_columnados_columnasaumentar_letrareducir_letravista_scrollver_impresionver_impresion_con_acordes | votar: ++++++---- | Puntaje actual: 6.00

Links Patrocinados

Links Patrocinados

calculadora de indice de masa corporal IMC

Links Patrocinados




Diccionario de Nombres

Intro 1┬░ parte (Charango)


---3-7-3-2-7-2-0-2-3-----------0-----------------------------------------
---------------------3-1-0-1-3---0-------0-----0-1-3-1-0-1-3---0-1---0---
-----------------------------------2-0-2---0-2---------------2-----4-----
-------------------------------------------------------------------------
-------------------------------------------------------------------------
-------------------------------------------------------------------------

INtro 2┬░ parte (quena)


---3-5-7-2-------2-3-----------0-----------------------------------------
-----------5-3-5-----3-1-0-1-3---0--------3---0-1------------------------
------------------------------------2-0-2---2-------0--------------------
--------------------------------------------------4----------------------
-------------------------------------------------------------------------
-------------------------------------------------------------------------



    Em                 Bm
Verteros de labios quebrados
    C                 G
zampo├▒ias y quenas sonando
  Am                   G
antiguo respiro en la boca
  F     D           G                 (G D)
besos, besos de mi raza
   Em                    Bm
perdido en la noche el silencio
    C                    G
la tarde que se hace distancia
    Am                       G
misterios que el tiempo descifra
F   D               G                (Am G C D)
├ęse, ├ęse es su respiro

D       C                       D
Siento quenas que en el viento huyen
    B                       C       D
trayendo amores y silencios de las pe├▒as
 C              Eb             G
que encierran el sol en su coraz├│n

Am                 D
Entre airampos de luna
    C                       D
samponias que en el viento huyen
     B                                C
en viaje buscando el cielo un c├│ndor va
   D    C         Eb                G
como mi ser resucitar├í buscando la luz




Esta es una transcripcion personal de un usuario de www.letrasyacordes.net - El material contenido en esta pagina es para exclusivo uso privado, quedando prohibida su reproduccion o retransmision, asi como su uso con fines comerciales.


Letras y Acordes punto net, el mejor sitio para encontrar y compartir letras de canciones, con sus correspondientes acordes para guitarra y piano. No te olvides de votar para calificar la calidad de las letras
Palabras utilizadas para encontrar esta página:
Divididos, GUANUQUEANDO, letra y acordes de GUANUQUEANDO de Divididos, canciones de Divididos, tocar con guitarra GUANUQUEANDO, tocar con piano GUANUQUEANDO, estudiar m├║sica
Ver más canciones de :

Divididos


 
{c} 2016 - letrasyacordes.net