Letras y Acordes |  Acordes |  Afinador |  IMC |  num A B C D E F G H I J K L M N O P Q R S T U V W X Y Z 
 

 

OTRA COMO Tú - Eros Ramazzotti  

Links Patrocinados / Anuncios:

una_columnados_columnasaumentar_letrareducir_letravista_scrollver_impresionver_impresion_con_acordes | votar: +++------- | Puntaje actual: 3.33

Links Patrocinados

Links Patrocinados

calculadora de indice de masa corporal IMC

Links Patrocinados




Diccionario de Nombres

Esta chida esta cancion
esta para bajo de 4 cuerdas, en la cancion original es con 5
especialmente en re
Intro
E|--2-|-1-|---|-------|-6--|
A|----|---|-6-|-------|----|
D|----|---|---|-6h8-6-|----|
G|----|---|---|-------|----|

E|--2-22--2-22-|-1-11--1-11-|-------4-44-|-6-66--6--|
A|-------------|------------|-6-66-------|----------|
D|-------------|------------|------------|----------|
G|-------------|------------|------------|----------|

No puede haber donde la encontraria
E|--2-22--2-22-|-1-11--1-11-|-------4-44-|-6-66--6-|---4-6-4--|
A|-------------|------------|-6-66-------|---------|-44-------|
D|-------------|------------|------------|---------|----------|
G|-------------|------------|------------|---------|----------|

No puede haber desgracia
E|--2-22--2-22-|-1-11--1-11-|-------4-44-|----------6---|
A|-------------|------------|-6-66-------|-4-44--8h6-4--|
D|-------------|------------|------------|--------------|
G|-------------|------------|------------|--------------|

Con iguales
E|--6-66--6-6---6-|---------4---|---------------|---------46---|
A|-----------686--|-4-44--4--43-|-1-11--1-1---1-|-4-44--4---4--|
D|----------------|-------------|----------131--|--------------|
G|----------------|-------------|---------------|--------------|

Con la misma fantasia
E|----------6----|--------------------6-|-4-44-4--|
A|--6-66--6--6---|--------6-66--6-6--4--|---------|
D|------------3--|-4-44-3----------34---|---------|
G|---------------|----------------------|---------|

Otra no puede haber
E|--------4-|-6--|---------|-------4-|-6--|---------|
A|--4-------|--6-|------13-|-4-------|--6-|-----13--|
D|----4h6---|----|-2h4-1---|---4h6---|----|-4-1-----|
G|----------|----|---------|---------|----|---------|

Parece claro que
E|--------4-|-6--|---------|-------4-|-6--|------|
A|--4-------|--6-|------13-|-4-------|--6-|------|
D|----4h6---|----|-2h4-1---|---4h6---|----|-4-1--|
G|----------|----|---------|---------|----|------|

Es la cosa mas
E|--6----|-1-----42-|----4-|-4-----4--|
A|---6---|--1-134---|-6-6--|------6---|
D|-----3-|----------|------|---4h6----|
G|-------|----------|------|----------|

                           y le falta                    y me
E|--6-66--6------|---------4---|-6-66--6------|---------4---------|
A|---------------|-4-44--4--43-|--------------|-4-44--4--1h4-1/6--|
D|-------------8-|-------------|------------8-|-------------------|
G|----------6h8--|-------------|---------6h8--|-------------------|

    faltan las miradas                           parece claro
E|----------6----|--------------------6-|-4-44--4--------------|
A|--6-66--6--6---|--------6-66--6-6--4--|----------------------|
D|------------3--|-4-44-3----------34---|---------4h6-4/6-4-6--|
G|---------------|----------------------|----------------------|

Otra no puede haber
E|--------4-|-6--|---------|-------4-|-6--|---------|
A|--4-------|--6-|------13-|-4-------|--6-|-----13--|
D|----4h6---|----|-2h4-1---|---4h6---|----|-4-1-----|
G|----------|----|---------|---------|----|---------|

Parece claro que
E|--------4-|-6--|---------|-------4-|-6--|-----|------|
A|--4-------|--6-|------13-|-4-------|--6-|---6-|-66---|
D|----4h6---|----|-2h4-1---|---4h6---|----|-4---|------|
G|----------|----|---------|---------|----|-----|---8--|

en el solo de guitarra
E|--------6-|-8--|---------|-------6-|-8--|---------|
A|--6-------|--8-|------35-|-6-------|--8-|-----35--|
D|----6h8---|----|-4h6-3---|---6h8---|----|-6-3-----|
G|----------|----|---------|---------|----|---------|

E|--------6-|-8--|---------|--------6-|-8--|-----------|
A|--6-------|--8-|------35-|-66-------|--8-|-8---------|
D|----6h8---|----|-4h6-3---|----6h8---|----|--6h8---6--|
G|----------|----|---------|----------|----|-----6/8---|

Es la cosa mas
E|------|---------|----6-|-66-66-6--|
A|--8---|-3-356---|-8-8--|----------|
D|----5-|------36-|------|----------|
G|------|---------|------|----------|

                           no    no creo
E|--4-44-|-3-33-|-1-11-|-|-4-|-|-1--|
A|-------|------|------|-|---|-|----|
D|-------|------|------|-|---|-|----|
G|-------|------|------|-|---|-|----|

atte. miauricio gatolar




Esta es una transcripcion personal de un usuario de www.letrasyacordes.net - El material contenido en esta pagina es para exclusivo uso privado, quedando prohibida su reproduccion o retransmision, asi como su uso con fines comerciales.


Letras y Acordes punto net, el mejor sitio para encontrar y compartir letras de canciones, con sus correspondientes acordes para guitarra y piano. No te olvides de votar para calificar la calidad de las letras
Palabras utilizadas para encontrar esta página:
Eros Ramazzotti, OTRA COMO Tú, letra y acordes de OTRA COMO Tú de Eros Ramazzotti, canciones de Eros Ramazzotti, tocar con guitarra OTRA COMO Tú, tocar con piano OTRA COMO Tú, estudiar música
Ver más canciones de :

Eros Ramazzotti


 
{c} 2016 - letrasyacordes.net