Letras y Acordes |  Acordes |  Afinador |  IMC |  num A B C D E F G H I J K L M N O P Q R S T U V W X Y Z 
 

 

CAMPANA SOBRE CAMPANA - Villancicos  

Links Patrocinados / Anuncios:

una_columnados_columnasaumentar_letrareducir_letravista_scrollver_impresionver_impresion_con_acordes | votar: ++++------ | Puntaje actual: 4.70

Links Patrocinados

Links Patrocinados

calculadora de indice de masa corporal IMC

Links Patrocinados




Diccionario de Nombres

• Campana sobre...
E:---------------------------------------------------------
B:---------------------------------------------------------
G:---------------------------------------------------------
D:0---0--0--0--0--2-------2--2--4--5--4--2--4--2--0--------
A:---------- 4------4--0----------------------------------
E:---------------------------------------------------------

(Todo 2 veces)

• BelĂ©n Campanas…

E:-------------------------------------------------------
B:------------------------------2--3-----------------------
G:--2--4--2--0--4--2--2--4--2--4------2-4--2--0------------
D:4---4------------------------------------------4--2---0-
A:---------------------------------------------------------
E:--------------------------------------------------------


• Recogido tu Rebaño…

E:------------------------------------------------
B:------------------------------------------------
G:------------------2--4--2--0----2--2--1-----2---
D:---4--5--4--2--0-------------4------------2------
A:------------------------------------------------
E:------------------------------------------------

E:------------------------------------------------
B:------------------------------------------------
G:-0---------------------------------------------
D:---4--2--0-------------------------------------
A:---------------------------------------------
E:------------------------------------------------


(2 veces)



• BelĂ©n, campanas de BelĂ©n…

E-------------------------------------------------------
B:------------------------------2--3-----------------------
G:--2--4--2--0--4--2--2--4--2--4------2-4--2--0------------
D:4---4------------------------------------------4--2---0-
A:---------------------------------------------------------
E:--------------------------------------------------------

De ahĂ­ se repite absolutamente Todo y al final se repite el coro dos veces

Y para acompañar a esto, he puesto tambiĂ©n los acordes




Esta es una transcripcion personal de un usuario de www.letrasyacordes.net - El material contenido en esta pagina es para exclusivo uso privado, quedando prohibida su reproduccion o retransmision, asi como su uso con fines comerciales.


Letras y Acordes punto net, el mejor sitio para encontrar y compartir letras de canciones, con sus correspondientes acordes para guitarra y piano. No te olvides de votar para calificar la calidad de las letras
Palabras utilizadas para encontrar esta página:
Villancicos, CAMPANA SOBRE CAMPANA, letra y acordes de CAMPANA SOBRE CAMPANA de Villancicos, canciones de Villancicos, tocar con guitarra CAMPANA SOBRE CAMPANA, tocar con piano CAMPANA SOBRE CAMPANA, estudiar mĂşsica
Ver más canciones de :

Villancicos


 
{c} 2016 - letrasyacordes.net