Letras y Acordes |  Acordes |  Afinador |  IMC |  num A B C D E F G H I J K L M N O P Q R S T U V W X Y Z 
 

 

CARA DE GITANA || Bryndis  

Links Patrocinados / Anuncios:

una_columnados_columnasaumentar_letrareducir_letravista_scrollver_impresionver_impresion_con_acordes | votar: ++++------ | Puntaje actual: 4.50

Links Patrocinados

Links Patrocinados

calculadora de indice de masa corporal IMC

Links Patrocinados



ESTA PARTE ES EL INTRO DEL TECLADO
QUE LLEVA LA CANCIÃ’N ESTA MUY FACIL.

INTRO
                                 Am
e|---7--8-8-8-8-8--7-8-10--7-8-7-------10-12-12-12-12-12--13-12-|
B|-10----------------------------10--13-------------------------|
G|--------------------------------------------------------------|
             E
e|--10--10-------7-8--10-10-10-10-10-10--12-13-12--10-7--4-5-7--|
B|----13--13-12-------------------------------------------------|
G|--------------------------------------------------------------|
                                                              Am
e|-7-7-7-7-7-8-10-13-12-10--7--4-5-7-7-7-7-7-7--12-10-8-7-8-7-5-|
B|--------------------------------------------------------------|
G|--------------------------------------------------------------|



Am
NEGROS TUS CABELLOS

CUBRIAN TU CUERPO

TAN LLENAS DE AMOR
             E
TE VI BAILANDO.


OTRO TE ABRAZABA

OTRO TE BESABA

PERO ERAS A MI
             Am
A QUIEN MIRABAS.


CARA DE GITANA

DULCE APASIONADA

ME DISTE TU AMOR
            E
CON UNA ESPADA.


HOY EN LOS CAMINOS

VAGAS TU DESTINO

VIVES EL AMOR
           Am
PROBAS CARIÑO.


DONDE ESTAN TUS OJOS

TAN PROFUNDOS

Y AQUEL FUEGO DE TUS
                  E
LABIOS QUE ERAN MIOS.


EL LICOR QUE BEBO

HABRE MIS HERIDAS

ME EMBORACHA Y MAS
                Am
TE QUIERO TODABIA.


AY AY AY AY EN DONDE
   E           Am
ESTAS GITANA MIA

ES ESTA MI CANCIÃ’N
          E
DESESPERADA.


QUE TE LLAMA Y QUE

TE BUSCA EN TODAS PARTES

PERO A DONDE VAS
                 Am
DE TI YA NADIE SABE.

SOLO
e|------10-12--12-10-8-7--7-8-10--7-8-10--7-8-10--7-8-10--12-12-|
B|-10-13--------------------------------------------------------|
G|--------------------------------------------------------------|

e|-10-8-7--7-8-10--7-8-10--7-8-10--7-8-10--12-12-8-7-5-----|
B|---------------------------------------------------------|
G|---------------------------------------------------------|

NEGROS TUS......

SOLO

Y FIN

ESO ES TODO ESPERO QUE LES GUSTE
DUDAS O COMENTARIOS AMI CORREO
DINAL_CABRERA@HOTMAIL.COM
SI QUIEREN TABS DE CUALQUIER
ARTISTA NO DUDEN EN PREGUNTARMELO.
   Am    E
e|-0-| |-0-|
B|-1-| |-0-|
G|-2-| |-1-|
D|-2-| |-2-|
A|-0-| |-2-|
E|-0-| |-0-|

ATT. D.F.C.J




Esta es una transcripcion personal de un usuario de www.letrasyacordes.net - El material contenido en esta pagina es para exclusivo uso privado, quedando prohibida su reproduccion o retransmision, asi como su uso con fines comerciales.


Letras y Acordes punto net, el mejor sitio para encontrar y compartir letras de canciones, con sus correspondientes acordes para guitarra y piano. No te olvides de votar para calificar la calidad de las letras
Palabras utilizadas para encontrar esta página:
Bryndis, CARA DE GITANA, letra y acordes de CARA DE GITANA de Bryndis, canciones de Bryndis, tocar con guitarra CARA DE GITANA, tocar con piano CARA DE GITANA, estudiar música
Ver más canciones de :

Bryndis


 
{c} 2016 - letrasyacordes.net