Letras y Acordes |  Acordes |  musica y amigos |  Afinador | 
 
num  A  B  C  D  E  F  G  H  I  J  K  L  M  N  O  P  Q  R  S  T  U  V  W  X  Y  Z  

 

EL ANGEL DE LA MUERTE - Bulldog  

Links Patrocinados / Anuncios:

Links Patrocinados / Anuncios:

musica y amigos
una_columnados_columnasaumentar_letrareducir_letravista_scrollver_impresionver_impresion_con_acordes | votar: ++++++---- | Puntaje actual: 6.00

Links Patrocinados

Links Patrocinados

calculadora de indice de masa corporal IMC

Links Patrocinados




Diccionario de Nombres

bueno esta es la version en vivo... espero q les guste...es facil!!!
intro
G:--------
D:--------
A:----0-2-3
E:--2------

G:--------
D:--------
A:---0-2-0
E:-2------


G:-------------------------
D:-------------------------
A:----0-2-3/-5/-3/-7/-5/-3/
E:--2----------------------

G:----------------------------------
D:----------------------------------
A:--11/12-12/19-19-17-15------------
E:-----------------------15-15-15-15

puede llegar a mi
G:--------------------------------------
D:--------------------------------------
A:------12-14-15-12-15-15/17-17-17-17-15
E:---14---------------------------------

G:--------------------------------------
D:--------------------------------------
A:------12-14-15-12-15-15/20-20-20-20-20
E:---14---------------------------------

G:-------------------------------------------------------------------------
D:-------------------------------------------------------------------------
A:-20-20-20-15-15-15-15-15-15------------------17-17-17-15-15-15-----------
E:----------------------------15-15-15-15-15-15-----------------13-13-13-13

me imagino el lugar
G:--------
D:--------
A:--0/----
E:--------

con antorchas de fuego
G:--------
D:--0/----
A:-----0/-
E:--------

y justo al final
G:--------
D:--------
A:-0/-----
E:--------

un castillo negro
G:--------
D:---2/---
A:--------
E:--------

si yo llego hasta ahi
G:--------
D:--------
A:--------
E:--2/----

lo hare a mi manera
G:--------
D:--------
A:---0/---
E:--------
no como los demas
G:--------
D:---0/---
A:--0/----
E:--------

quieran decir
G:--------
D:-2/-----
A:----0/--
E:--------

eso 3 veces. despues es lo mismo con estas notas

G:---------------------------------------------
D:-----2/-----------2/-0/----2/----------------
A:--2/----2/--------------2/----2/-------------
E:-----------2/-4/------------------2/---------

bueno esta es mi primer tab...

chicos y chicas bulldogeras agreguenme este es mi mail


franco_b_7@hotmail.com

QuIeRo Ir A HaCeR MuSiCa PuNk CoN VoS!!!




Esta es una transcripcion personal de un usuario de www.letrasyacordes.net - El material contenido en esta pagina es para exclusivo uso privado, quedando prohibida su reproduccion o retransmision, asi como su uso con fines comerciales.
Poné el link en tu página o en foros!!!!
Para MySpace:
Para Foros:
musica y amigos
Compartí con tus amigos esta canción en tu Facebook
Articulo Destacado: Mantenimiento de la Guitarra - Cuerdas

 

 
fuente
 
Letras y Acordes punto net, el mejor sitio para encontrar y compartir letras de canciones, con sus correspondientes acordes para guitarra y piano. Registrate en nuestro foro y enterate cómo agregar tus propias transcripciones. No te olvides de votar para calificar la calidad de las letras
Palabras utilizadas para encontrar esta página:
Bulldog, EL ANGEL DE LA MUERTE, letra de EL ANGEL DE LA MUERTE de Bulldog, letras, letra, acordes, canciones, letras de cancion, lyrics, cancion, grupo, banda, cantante, tablatura, partitura, tocar con guitarra, tocar con piano, tocar con bajo, armónica, teclado, bajo, ejecutar, estudiar música
Ver más canciones de :

Bulldog


 
{c} 2007 / 2011 - letrasyacordes.net