Letras y Acordes |  Acordes |  Afinador |  IMC |  num A B C D E F G H I J K L M N O P Q R S T U V W X Y Z 
 

 

FRíA - Kjarkas  

Links Patrocinados / Anuncios:

una_columnados_columnasaumentar_letrareducir_letravista_scrollver_impresionver_impresion_con_acordes | votar: +++++----- | Puntaje actual: 5.06

Links Patrocinados

Links Patrocinados

calculadora de indice de masa corporal IMC

Links Patrocinados




Diccionario de Nombres

bueno ahi les va esta cancion que ami me costo sacarla y espero
que la puedan tocar
----------------------------------------------------------------
----------------------------------------------------------------
----------------------------------------------------------------
-----0--2--3-----0--2--3-----0--2--3---------0--2--3-----0--2--3
--0-----------0-----------0---------------1-----------1---------
----------------------------------------------------------------

----------------------------------------------------------------
----------------------------------------------------------------
----------------------------------------------------------------
-----0--2--3-------------0--2--0--------------------------------
--1-------------------3------------3--1--3--1--0-----1----------
-------------------3------------------------------3-----3--4--5-

---6--5--6--7--6-6----------------------------------------------
----------------------------------------------------------------
----------------------------------------------------------------
------5--6--7--6-6----------------------------------------------
---6------------------------------------------------------------


cualquier duda me escriben a rodrigo_gem12@hotmail.com




Esta es una transcripcion personal de un usuario de www.letrasyacordes.net - El material contenido en esta pagina es para exclusivo uso privado, quedando prohibida su reproduccion o retransmision, asi como su uso con fines comerciales.


Letras y Acordes punto net, el mejor sitio para encontrar y compartir letras de canciones, con sus correspondientes acordes para guitarra y piano. No te olvides de votar para calificar la calidad de las letras
Palabras utilizadas para encontrar esta página:
Kjarkas, FRíA, letra y acordes de FRíA de Kjarkas, canciones de Kjarkas, tocar con guitarra FRíA, tocar con piano FRíA, estudiar música
Ver más canciones de :

Kjarkas


 
{c} 2016 - letrasyacordes.net