Letras y Acordes |  Acordes |  Afinador |  IMC |  num A B C D E F G H I J K L M N O P Q R S T U V W X Y Z 
 

 

NOCHE TOLEDANA - Mago De Oz  

Links Patrocinados / Anuncios:

una_columnados_columnasaumentar_letrareducir_letravista_scrollver_impresionver_impresion_con_acordes | votar: ++++++---- | Puntaje actual: 6.00

Links Patrocinados

Links Patrocinados

calculadora de indice de masa corporal IMC

Links Patrocinados




Diccionario de Nombres

MÄGO DE OZ;SERGIO Teclados
NOCHE TOLEDANA ESTA TAB ES TODO LO DEL TECLADO
DE SERGIO ESTA ESTA AL 100%
INTRO
e|-7----------------|-5------17--------|-3-------15----------|
B|-8------20--------|-7----19----19----|-5----17------17-----|
G|-9----21-----21---|-7--19---------19-|-5--17------------17-|
D|-9--21---------21-|-7----------------|-5-------------------|
A|-7----------------|-5----------------|-3-------------------|
E|------------------|------------------|---------------------|

e|-2--------14---------17----|-7----------19-----------------|
B|-4-----16---------16----16-|-20--------------------20------|
G|-4--16---------16-------16-|-9---21-------------21---------|
D|-4-------------------------|-9------21-------21------------|
A|-2-------------------------|-7-----------------------------|
E|---------------------------|-------------------------------|

e|-5----------17------------|-3----------15------------------|
B|-19--------------------19-|-17--------------------17-------|
G|-7--19--------------19----|-5---17-------------17----------|
D|-7-----19--------19-------|-5------17------17--------------|
A|-5------------------------|-3------------------------------|
E|--------------------------|--------------------------------|

e|-2----------12------------|------------11------------------|
B|-16--------------------16-|------------16------------------|
G|-4--16--------------16----|------------4-------------------|
D|-4-----16--------16-------|------------4-------------------|
A|-2------------------------|------------2-------------------|
E|--------------------------|--------------------------------|
ESTOS SON LOS ACORDES QUE LLEVA
EL SOLO CUANDO EMPIEZAN A TOCAR
CARLITOS Y FRANK

e|--7--|--5--|--3--|--2--|--7--|--5--|--5--|--7--|
B|--8--|--7--|--5--|--4--|--8--|--7--|--5--|--8--|
G|--9--|--7--|--5--|--4--|--9--|--7--|--5--|--9--|
D|--9--|--7--|--5--|--4--|--9--|--7--|--7--|--9--|
A|--7--|--5--|--3--|--2--|--7--|--5--|--7--|--7--|
E|-----|-----|-----|-----|-----|-----|--5--|-----|

e|--7--|--5--|--5--|--7--|
B|--8--|--7--|--5--|--8--|
G|--9--|--7--|--5--|--9--|
D|--9--|--7--|--7--|--9--|
A|--7--|--5--|--7--|--7--|
E|-----|-----|--5--|-----|

e|--7--|--5--|--3--|--2--|--7--|--5--|--5--|--7--|
B|--8--|--7--|--5--|--4--|--8--|--7--|--5--|--8--|
G|--9--|--7--|--5--|--4--|--9--|--7--|--5--|--9--|
D|--9--|--7--|--5--|--4--|--9--|--7--|--7--|--9--|
A|--7--|--5--|--3--|--2--|--7--|--5--|--7--|--7--|
E|-----|-----|-----|-----|-----|-----|--5--|-----|

e|--7--|--5--|--5--|--7--|
B|--8--|--7--|--5--|--8--|
G|--9--|--7--|--5--|--9--|
D|--9--|--7--|--7--|--9--|
A|--7--|--5--|--7--|--7--|
E|-----|-----|--5--|-----|

e|--5--|--3--|--2--|---------------7--12----0-|
B|--7--|--5--|--4--|------------8-----------0-|
G|--7--|--5--|--4--|--------9---------------0-|
D|--7--|--5--|--4--|------9-----------------2-|
A|--5--|--3--|--2--|----7-------------------2-|
E|-----|-----|-----|--0---------------------0-| Y FIN


ESO ES TODO ESPERO QUE LES GUSTE
DUDAS O COMENTARIOS A MI CORREO
Y SI QUIEREN MAS TABS DE MAGO NO DUDEN EN
PREGUNTARMELO, VOY A VER SI PASO LOS
TABS DE LAS GUITARRAS DE ESTE SOLO.
D.F.C.J




Esta es una transcripcion personal de un usuario de www.letrasyacordes.net - El material contenido en esta pagina es para exclusivo uso privado, quedando prohibida su reproduccion o retransmision, asi como su uso con fines comerciales.


Letras y Acordes punto net, el mejor sitio para encontrar y compartir letras de canciones, con sus correspondientes acordes para guitarra y piano. No te olvides de votar para calificar la calidad de las letras
Palabras utilizadas para encontrar esta página:
Mago De Oz, NOCHE TOLEDANA, letra y acordes de NOCHE TOLEDANA de Mago De Oz, canciones de Mago De Oz, tocar con guitarra NOCHE TOLEDANA, tocar con piano NOCHE TOLEDANA, estudiar música
Ver más canciones de :

Mago De Oz


 
{c} 2016 - letrasyacordes.net