Letras y Acordes |  Acordes |  Afinador |  IMC |  num A B C D E F G H I J K L M N O P Q R S T U V W X Y Z 
 

 

LA DANZA DE LOS MIRLOS - Los Mirlos  

Links Patrocinados / Anuncios:

una_columnados_columnasaumentar_letrareducir_letravista_scrollver_impresionver_impresion_con_acordes | votar: +++++----- | Puntaje actual: 5.80

Links Patrocinados

Links Patrocinados

calculadora de indice de masa corporal IMC

Links Patrocinados




Diccionario de Nombres


|--------------------------------|
|--------------------------------|
|--------------------------------|
|-----------0h-2-2-2-2---0-------|
|-0-0-0-0-3-----------2----------|
|--------------------------------| x 4


|--------0-0-0-0h-3--------------|
|-1---1------------0-3-----------|
|---2------------------2---------|
|--------------------------------|
|--------------------------------|
|--------------------------------| x 2



|--------0-3-2-1-0----------------|
|--1---1-----------3-1-0-3-1-0----|
|----2-------------------------2--|
|---------------------------------|
|---------------------------------|
|---------------------------------| x 3


|--------------------------------|
|--------------------------------|
|--------------------------------|
|-----------0h-2-2-2-2---0-------|
|-0-0-0-0-3-----------2----------|
|--------------------------------|


|--------0-0-0-0h-3--------------|
|-1---1------------0-3-----------|
|---2------------------2---------|
|--------------------------------|
|--------------------------------|
|--------------------------------|



|--------0-3-2-1-0----------------|
|--1---1-----------3-1-0-3-1-0----|
|----2-------------------------2--|
|---------------------------------|
|---------------------------------|
|---------------------------------|



|----------8-10/12-12-12----10-8-------|
|--10---10---------------12------10----|
|-----9--------------------------------|
|--------------------------------------|
|--------------------------------------|
|--------------------------------------| x 4



|-----------------------------------|
|----------1------------------------|
|--2-2-2-2---2-0-0-0-0-4-3----------|
|-----------------------------------|
|-----------------------------------|
|-----------------------------------| x 4


Riff. 7
-1------3-3-3---3---3/5-5-5---5--------5--||
-2------------3---3---------5---5------5--||
------------------------------------------||
------------------------------------------||
------------------------------------------||
------------------------------------------||


Esta es una transcripcion personal de un usuario de www.letrasyacordes.net - El material contenido en esta pagina es para exclusivo uso privado, quedando prohibida su reproduccion o retransmision, asi como su uso con fines comerciales.


Letras y Acordes punto net, el mejor sitio para encontrar y compartir letras de canciones, con sus correspondientes acordes para guitarra y piano. No te olvides de votar para calificar la calidad de las letras
Palabras utilizadas para encontrar esta página:
Los Mirlos, LA DANZA DE LOS MIRLOS, letra y acordes de LA DANZA DE LOS MIRLOS de Los Mirlos, canciones de Los Mirlos, tocar con guitarra LA DANZA DE LOS MIRLOS, tocar con piano LA DANZA DE LOS MIRLOS, estudiar música
Ver más canciones de :

Los Mirlos


 
{c} 2016 - letrasyacordes.net