Letras y Acordes |  Acordes |  Afinador |  IMC |  num A B C D E F G H I J K L M N O P Q R S T U V W X Y Z 
 

 

ALGO DE VOS || Las Pastillas del Abuelo  

Links Patrocinados / Anuncios:

una_columnados_columnasaumentar_letrareducir_letravista_scrollver_impresionver_impresion_con_acordes | votar: +++++++--- | Puntaje actual: 7.50

Links Patrocinados

Links Patrocinados

calculadora de indice de masa corporal IMC

Links Patrocinados



Como siempre digo para tocarlo escuchen el tema para sacarle
bien el feeling y el tiempo.
Creo que en algunas parte es dificil sacarlo pero quedo bastante bien
y con practica se puede tocar...


Solo: [3:52]

Base: G-D-C-G-D-Am-G-D-B-E-D-E-D-E-D-E-D-E-D-E

E--------------------------------------|
B-10/12-10-8-8h10--10b(12)-10-8-8h10-8-|
G--------------------------------------|
D--------------------------------------|
A--------------------------------------|
E--------------------------------------|


E----------------------10-10-9-10--12-12-12-10----------------------|
B-----------8-7-8-8/12------------------------12-12br-10--------10--|
G-------7-9---------------------------------------------12-11-12----|
D----9--------------------------------------------------------------|
A-10----------------------------------------------------------------|
E-------------------------------------------------------------------|


E-------------------------15-14---|
B--10*/12--12-12*/13-13-13--------|
G-9-------------------------------|
D---------------------------------|
A---------------------------------|
E---------------------------------|


E----------------------------------------|
B-13-12-15-13-12-----------10br----------|
G---------------14-12-9-12-------9-12--9-|
D----------------------------------------|
A----------------------------------------|
E----------------------------------------|


E----------------------------------------------|
B---------8--10/12-12-[10b(12)-12](x4)-10b(12)-|
G-----7-9--------------------------------------|
D-7-9------------------------------------------|
A----------------------------------------------|
E----------------------------------------------|


E-12-15-12--12----------------------------------------------|
B---------15--15-12-15-12--------12---------------------8---|
G------------------------14-12-14--12-11-12-11-9-7---7-9--9-|
D--------------------------------------------------9--------|
A-----------------------------------------------------------|
E-----------------------------------------------------------|


E-12*--15-10*/12--15-17*br(18)-15-17-|
B------------------------------------|
G------------------------------------|
D------------------------------------|
A------------------------------------|
E------------------------------------|


E-7-[12-10-7]t(x3)-15-12-14--------------------|
B--------------------------12-10-8-10b(14)r----|
G----------------------------------------------|
D----------------------------------------------|
A----------------------------------------------|
E----------------------------------------------|


E-------------------------------------------------|
B--------8-8--8--10-10br(14)---10br(14)*--9*/109-|
G----7-9----9-------------------------------------|
D-7h9---------------------------------------------|
A-------------------------------------------------|
E-------------------------------------------------|

NOTACION:

*:Dejar sonar

b:Estirar un tono o hasta que suene como la nota entre parentesis.

br:Estirar la nota un tono o hasta que suene como la nota
entre parentesis y volver a la nota original.

[12-10](x4)ej: Tocar lo que esta entre corchetes las veces que
indique el parentesis.

t: Tapping. se puede usar esta tecnica en el [12-10-7](x3) para
mas velocidad.



sAlUtE!!!

Criticas, dudas, agreguen:

sergioceballes@hotmail.com




Esta es una transcripcion personal de un usuario de www.letrasyacordes.net - El material contenido en esta pagina es para exclusivo uso privado, quedando prohibida su reproduccion o retransmision, asi como su uso con fines comerciales.


Letras y Acordes punto net, el mejor sitio para encontrar y compartir letras de canciones, con sus correspondientes acordes para guitarra y piano. No te olvides de votar para calificar la calidad de las letras
Palabras utilizadas para encontrar esta página:
Las Pastillas del Abuelo, ALGO DE VOS, letra y acordes de ALGO DE VOS de Las Pastillas del Abuelo, canciones de Las Pastillas del Abuelo, tocar con guitarra ALGO DE VOS, tocar con piano ALGO DE VOS, estudiar música
Ver más canciones de :

Las Pastillas del Abuelo


 
{c} 2016 - letrasyacordes.net