Letras y Acordes |  Acordes |  Afinador |  IMC |  num A B C D E F G H I J K L M N O P Q R S T U V W X Y Z 
 

 

NUESTRO JURAMENTO - Julio Jaramillo  

Links Patrocinados / Anuncios:

una_columnados_columnasaumentar_letrareducir_letravista_scrollver_impresionver_impresion_con_acordes | votar: ++++++++-- | Puntaje actual: 8.18

Links Patrocinados

Links Patrocinados

calculadora de indice de masa corporal IMC

Links Patrocinados




Diccionario de Nombres

Bueno pues aki esta la introduccion de esta famosa cancion.
Hice la trascripcion para bajo, de todos modos ahi tienen
las notas para adecuarla a cualquier instrumento musical.

Mi sol# si re fa mi si la la
mi mi mi mi sol# sol# sol# sol# si si si si fa mi si  la la
Fa#  re re re sol  re re re Fa#  re re re sol  re re re
Mi do do do fa do do  do Mi do do do fa do do  do
Re si si si Re si si si Re si si si Re si si si Re si si si
Mi fa mi re do la do mi la


G|-------7-10-9------------------------------------10-9------
D|------9-------9-7-7----------------------9-9-9-9-----9-7-7-
A|--7-11----------------7-7-7-7-11-11-11-11------------------
E|-----------------------------------------------------------


-11--------12--------11--------12----------
---12-12-12--12-12-12--12-12-12--12-12-12--
-------------------------------------------
-------------------------------------------

-9--------10--------9---------10----------
--10-10-10--10-10-10--10-10-10--10-10-10--
------------------------------------------
------------------------------------------

-7-----7------7------7--------------------------|
--9-9-9--9-9-9--9-9-9--9-9-9------------------7-|
------------------------------7-8-7----0----7---|
-----------------------------------10-8---8-----|




Esta es una transcripcion personal de un usuario de www.letrasyacordes.net - El material contenido en esta pagina es para exclusivo uso privado, quedando prohibida su reproduccion o retransmision, asi como su uso con fines comerciales.


Letras y Acordes punto net, el mejor sitio para encontrar y compartir letras de canciones, con sus correspondientes acordes para guitarra y piano. No te olvides de votar para calificar la calidad de las letras
Palabras utilizadas para encontrar esta página:
Julio Jaramillo, NUESTRO JURAMENTO, letra y acordes de NUESTRO JURAMENTO de Julio Jaramillo, canciones de Julio Jaramillo, tocar con guitarra NUESTRO JURAMENTO, tocar con piano NUESTRO JURAMENTO, estudiar música
Ver más canciones de :

Julio Jaramillo


 
{c} 2016 - letrasyacordes.net