Letras y Acordes |  Acordes |  Afinador |  IMC |  num A B C D E F G H I J K L M N O P Q R S T U V W X Y Z 
 

 

ARBOL DE MI DESTINO || Kjarkas  

Links Patrocinados / Anuncios:

una_columnados_columnasaumentar_letrareducir_letravista_scrollver_impresionver_impresion_con_acordes | votar: ++++++++-- | Puntaje actual: 8.38

Links Patrocinados

Links Patrocinados

calculadora de indice de masa corporal IMC

Links Patrocinados



Kjarkas
El Árbol de mi Destino

Aquí les va una canción muy buena,
 que es muy fácil de tocar,
 en el verso solo tienen que deslizar el dedo para que les salga igual.
Ya saben dudas o sugerencias me escriben danyes_cad@hotmail.com

1ro Introducción (00:01)
  SOL   →  RE   →   DO   →      SOL  →   RE
======   ======   ======   ====== ======
||||||   ||||||   ||||o|   |||||| ||||||
|o||||   |||o|o   ||o|||   |o|||| |||o|o
o||||o   ||||o|   |o||||   o||||o ||||o|
||||||   ||||||   ||||||   |||||| |||||| (x2)

(Rasgueo)
| | ▲ x | | ▲ x | | ▲
| | | x | | | x | | |
| | | x | | | x | | |
▼  ▼ | x ▼  ▼ | x ▼  ▼ |

2do Verso (00:24)
      SOL
MI ---3---3-----------------3-
SI ----0------------0---0-----
SOL-----0-------------0---0---
RE ------0--------------------
LA ---------------------------
MI ---------------------------
Ayer planté un arbolito....
    RE
----2---2------------------2-
-----3-------------3---3-----
------2--—-----------2---2---
-------0---------------------
-----------------------------
-----------------------------
Al borde de mi destino....
       DO
-----------------------------
-------1---1---------------1-
--------0-—--------0---0-----
---------2-----------2---2---
----------3------------------
-----------------------------
Con el tiempo luminoso....

     SOL         RE
------------------------------------
-----------0-----------3---------3-
-------0-----—0----2-----2---2------
-----0---0-------0---0-----0---0----
------------------------------------
------------------------------------
Era feliz y crecía....

        SOL
MI -----3---3--------------3-
SI ------0---------0---0-----
SOL-------0----------0---0---
RE --------0-----------------
LA --------------------------
MI --------------------------
Pero un día muy oscuro....
    RE
----2---2-----------------2-
-----3------------3---3-----
------2--—----------2---2---
-------0--------------------
----------------------------
----------------------------
Yo veía que sus hojas....
     DO
----------------------------
-----1---1----------------1-
------0-—---------0---0-----
-------2------------2---2---
--------3-------------------
----------------------------
Doradas se marchitaban....
     SOL         RE
------------------------------------
-----------0-----------3---------3-
-------0-----—0----2-----2---2------
-----0---0-------0---0-----0---0----
------------------------------------
------------------------------------
Doradas se marchitaban....

3er Verso (00:50)
    Lam
--------------------------------
----------1----------------1----
-----------—--------------------
------2------2---------2------2-
----0---0------------0---0------
--------------------------------
Su mundo de eternos sueños....
    Si7
-----------------------------
----------0-------------0----
------------—----------------
------1------1------1------1-
----2---2---------2---2------
-----------------------------
En nada se convertía....

   Lam
---------------------------------
---------1------------------1----
----------—----------------------
-----2------2-----------2------2-
---0---0--------------0---0------
---------------------------------
pasaba el tiempo muy frágil....
     Si7
-------------------------------
-----------0--------------0----
-------------—-----------------
-------1------1-------1------1-
-----2---2----------2---2------
-------------------------------
Las noches y las mañanas....

(La transición al coro se hace con rasgueo continuo, en Si7)

4to Coro (01:04)
SOL
No era feliz con la brisa
     RE
Que acariciaba sus hojas
  DO
Todo parecía muy triste
   SOL         RE
El árbol se me moría.

SOL
Ese arbolito querido
   RE
El que guardaba mis sueños
 DO
Ahora refleja mi vida
    SOL          RE
Son extraños los misterios.

5to Intermedio (01:30)
  SOL   →  RE   →   DO   →     SOL  →     RE
======   ======   ======   ====== ======
||||||   ||||||   ||||o|   |||||| ||||||
|o||||   |||o|o   ||o|||   |o|||| |||o|o
o||||o   ||||o|   |o||||   o||||o ||||o|
||||||   ||||||   ||||||   |||||| |||||| (x2)

6to Coro (01:53)
SOL
No era feliz con la brisa
     RE
Que acariciaba sus hojas
  DO
Todo parecía muy triste
   SOL         RE
El árbol se me moría

SOL
Ese arbolito querido
   RE
El que guardaba mis sueños
 DO
Ahora refleja mi vida
    SOL          RE
Son extraños los misterios.

7mo Intermedio (02:19)
  SOL   →  RE   →   DO   →       SOL  →   RE
======   ======   ======   ====== ======
||||||   ||||||   ||||o|   |||||| ||||||
|o||||   |||o|o   ||o|||   |o|||| |||o|o
o||||o   ||||o|   |o||||   o||||o ||||o|
||||||   ||||||   ||||||   |||||| |||||| (x2)

8vo Salida (02:42)
  SOL   →  RE   →   DO   →        SOL  →   RE
======   ======   ======   ====== ======
||||||   ||||||   ||||o|   |||||| ||||||
|o||||   |||o|o   ||o|||   |o|||| |||o|o
o||||o   ||||o|   |o||||   o||||o ||||o|
||||||   ||||||   ||||||   |||||| |||||| (x2)

Fin (03:08)

Saludo pa mis cuates, y para mi “cola”....




Esta es una transcripcion personal de un usuario de www.letrasyacordes.net - El material contenido en esta pagina es para exclusivo uso privado, quedando prohibida su reproduccion o retransmision, asi como su uso con fines comerciales.


Letras y Acordes punto net, el mejor sitio para encontrar y compartir letras de canciones, con sus correspondientes acordes para guitarra y piano. No te olvides de votar para calificar la calidad de las letras
Palabras utilizadas para encontrar esta página:
Kjarkas, ARBOL DE MI DESTINO, letra y acordes de ARBOL DE MI DESTINO de Kjarkas, canciones de Kjarkas, tocar con guitarra ARBOL DE MI DESTINO, tocar con piano ARBOL DE MI DESTINO, estudiar música
Ver más canciones de :

Kjarkas


 
{c} 2016 - letrasyacordes.net