Letras y Acordes |  Acordes |  Afinador |  IMC |  num A B C D E F G H I J K L M N O P Q R S T U V W X Y Z 
 

 

AMAR Y ENVEJECER - Las Pastillas del Abuelo  

Links Patrocinados / Anuncios:

una_columnados_columnasaumentar_letrareducir_letravista_scrollver_impresionver_impresion_con_acordes | votar: ++++++---- | Puntaje actual: 6.00

Links Patrocinados

Links Patrocinados

calculadora de indice de masa corporal IMC

Links Patrocinados




Diccionario de Nombres

Escunchen el tema para sacarle el timepo y la velocidad a cada nota.

E------------------|-----------15b17r---|
B-------------13---|-15b-15p13----------|
G-------12-14---14-|--------------------|
D-12-14------------|--------------------|
A------------------|--------------------|
E------------------|--------------------|

E-15-12-13-12--12--------------------------
B------------15---13-15-12h13p12--12-13-15-
G-------------------------------14---------
D------------------------------------------
A------------------------------------------
E------------------------------------------

E--------------------------------------|
B-------15-----15----------------------|
G-14b16---14b16---14b16r-12---12--14---|
D---------------------------14------14-|
A--------------------------------------|
E--------------------------------------|

E--------------------------------------------------------------|
B-----------------------12--------13-------------------8-------|
G--------------12-14b16*----14p12---14p12-14----7x-7-9---9-/2--|
D---------12-14-------------------------------9x---------------|
A-12-14-15-----------------------------------------------------|
E--------------------------------------------------------------|

E------------------|-------------|
B------------------|-------------|
G-0-7br(9)-5--5----|-------5-7-5-|
D-----------7----7-|---5-7-------|
A------------------|-7-----------|
E------------------|-------------|

E--------5-------------------------5-8-10p8-10-10b---------|
B----------8-5-----------5-5-8-5-8-----------------8-10-10-|
G-7b9*---------7-5---5-7-----------------------------------|
D------------------7---------------------------------------|
A----------------------------------------------------------|
E----------------------------------------------------------|

E-------------10-10br-|-------8p7-5---------------------------------|
B-8-10-8-10b12--------|---5-8-------8p5-8-8--5--5-------------------|
G---------------------|-7----------------------7--7-5-7-4h5p4---4v--|
D---------------------|---------------------------------------7-----|
A---------------------|---------------------------------------------|
E---------------------|---------------------------------------------|




NOTACION


h = Hammer on
Se  toca una nota y luego se apoya con fuerza otro dedo en la posicion
indicada.

p = Pull off
Se  toca  una  nota,  y  luego se retira el dedo rasgando levemente la
cuerda, dejando la cuerda sonando en la posicion indicada.

* = dejar sonar

b = bend
br= bend release
Se  estira  (bend)  la  cuerda hacia arriba. Si hay un numero, se debe
estirar hasta que suene como si se estuviera tocando en ese traste. Se
vuelve a la posicion normal en el Release.

x = MUte
Se  apoya el dedo sobre la cuerda correspondiente, pero sin presionar,
de modo que suene apagada.

agreguen cualquier correccion o consulta:
sergioceballes@hotmail.com
Salute!




Esta es una transcripcion personal de un usuario de www.letrasyacordes.net - El material contenido en esta pagina es para exclusivo uso privado, quedando prohibida su reproduccion o retransmision, asi como su uso con fines comerciales.


Letras y Acordes punto net, el mejor sitio para encontrar y compartir letras de canciones, con sus correspondientes acordes para guitarra y piano. No te olvides de votar para calificar la calidad de las letras
Palabras utilizadas para encontrar esta página:
Las Pastillas del Abuelo, AMAR Y ENVEJECER, letra y acordes de AMAR Y ENVEJECER de Las Pastillas del Abuelo, canciones de Las Pastillas del Abuelo, tocar con guitarra AMAR Y ENVEJECER, tocar con piano AMAR Y ENVEJECER, estudiar música
Ver más canciones de :

Las Pastillas del Abuelo


 
{c} 2016 - letrasyacordes.net