Letras y Acordes |  Acordes |  Afinador |  IMC |  num A B C D E F G H I J K L M N O P Q R S T U V W X Y Z 
 

 

INTRODUCCIóN A LA CUECA - Cuecas Chilenas  

Links Patrocinados / Anuncios:

una_columnados_columnasaumentar_letrareducir_letravista_scrollver_impresionver_impresion_con_acordes | votar: ++++++---- | Puntaje actual: 6.90

Links Patrocinados

Links Patrocinados

calculadora de indice de masa corporal IMC

Links Patrocinados




Diccionario de Nombres

Esto sirve como introduccion para una cueca:

e||---------------------------------|
B||-------------2--0----------------|
G||----2--2--2--------2--1----------|      DESPUES SE TOCA UN:
D||-------------------------4--2----|          MI (rasgueado)
A||---------------------------------|
E||---------------------------------|

e||-------------2--0----------------|
B||----3--3--3--------3--2--0-------|
G||----------------------------2----|      DESPUES SE TOCA UN:
D||---------------------------------|          LA (rasgueado)
A||---------------------------------|
E||---------------------------------|

e||-----------------------------------0--|-----------------------|
B||-----------2--0-----------------0-----|-----------------------|
G||--2--2--2--------2--1--------1--------|--------------1--1--2--|
D||-----------------------4--2-----------|--2--2--4--4-----------|
A||--------------------------------------|-----------------------|
E||--------------------------------------|-----------------------|

DESPUES SE TOCAN LAS NOTAS DE ALGUNA CUECA

UNA DE LAS MAS USADAS Y MAS FACIL EN LAS CUECAS ES:
LA - MI - LA - MI


SALU2 A TODOS, EN ESPECIAL A LOS CHILENOS!!!!





TAMBIEN A LOS CRXZADOS DE CHILE!!!!!




Esta es una transcripcion personal de un usuario de www.letrasyacordes.net - El material contenido en esta pagina es para exclusivo uso privado, quedando prohibida su reproduccion o retransmision, asi como su uso con fines comerciales.


Letras y Acordes punto net, el mejor sitio para encontrar y compartir letras de canciones, con sus correspondientes acordes para guitarra y piano. No te olvides de votar para calificar la calidad de las letras
Palabras utilizadas para encontrar esta página:
Cuecas Chilenas, INTRODUCCIóN A LA CUECA, letra y acordes de INTRODUCCIóN A LA CUECA de Cuecas Chilenas, canciones de Cuecas Chilenas, tocar con guitarra INTRODUCCIóN A LA CUECA, tocar con piano INTRODUCCIóN A LA CUECA, estudiar música
Ver más canciones de :

Cuecas Chilenas


 
{c} 2016 - letrasyacordes.net