Letras y Acordes |  Acordes |  Afinador |  IMC |  num A B C D E F G H I J K L M N O P Q R S T U V W X Y Z 
 

 

LA PARTIDA - Victor Jara  

Links Patrocinados / Anuncios:

una_columnados_columnasaumentar_letrareducir_letravista_scrollver_impresionver_impresion_con_acordes | votar: +++++++--- | Puntaje actual: 7.50

Links Patrocinados

Links Patrocinados

calculadora de indice de masa corporal IMC

Links Patrocinados




Diccionario de Nombres

|-0---0---------------------------|-------------3-2-0-2--2-0--0-------|
|----3----0-3-2-------------------|----------1-----------------3-1-0--|
|---------------2---2---4-2-0-----|--0--0-2-4-------------------------|
|-----------------------------4-2-|-2--------------------------------2|
|---------------------------------|-----------------------------------|
|---------------------------------|-----------------------------------|


|------------------|-------------3-2-0-2---2-0--0-----|----------------|
|------------------|----------1------------------3-1-0|----------------|
|-2----2--4-2-0----|--0--0-2-4------------------------|2---2--4-2-0----|
|---------------4-2|-2-------------------------------2|-------------4-2|
|------------------|----------------------------------|----------------|
|------------------|----------------------------------|----------------|


                    PARTE DEL BOMBO Y DE LA QUENA

|-----------3-2-0-2---2-0---0-------|---------------|
|---------1------------------3-1-0--|---------------|
|-0--0-2-4--------------------------|2--2--4-2-0----|
|----------------------------------2|------------4-2|
|-----------------------------------|---------------|
|-----------------------------------|---------------|



                FINAL CON EL CHARANGO.





ESTO ES SÓLO LO QUE SE DEBE TOCAR CON EL TIPLE.




Esta es una transcripcion personal de un usuario de www.letrasyacordes.net - El material contenido en esta pagina es para exclusivo uso privado, quedando prohibida su reproduccion o retransmision, asi como su uso con fines comerciales.


Letras y Acordes punto net, el mejor sitio para encontrar y compartir letras de canciones, con sus correspondientes acordes para guitarra y piano. No te olvides de votar para calificar la calidad de las letras
Palabras utilizadas para encontrar esta página:
Victor Jara, LA PARTIDA, letra y acordes de LA PARTIDA de Victor Jara, canciones de Victor Jara, tocar con guitarra LA PARTIDA, tocar con piano LA PARTIDA, estudiar música
Ver más canciones de :

Victor Jara


 
{c} 2016 - letrasyacordes.net