Letras y Acordes |  Acordes |  Afinador |  IMC |  num A B C D E F G H I J K L M N O P Q R S T U V W X Y Z 
 

 

SI TU NO VUELVES - Chetes  

Links Patrocinados / Anuncios:

una_columnados_columnasaumentar_letrareducir_letravista_scrollver_impresionver_impresion_con_acordes | votar: +++++++--- | Puntaje actual: 7.10

Links Patrocinados

Links Patrocinados

calculadora de indice de masa corporal IMC

Links Patrocinados




Diccionario de Nombres



ACORDES:> Bb Am7 C F

CHETES Y AMARAL HICIERON UN BUEN DUETO!

Intro:
Bb  Am7 x2

Verso:
 Bb
Si tú no vuelves,
      Am7
se secarán todos los mares,
        Bb
y esperaré sin ti,
           Am7
tapiado al fondo de algún recuerdo.

 Bb
Si tú no vuelves,
       Am7
mi voluntad se hará paqueña,
        Bb
me quedaré aquí,
           Am7
junto a mi perro espiando horizontes.

   Bb                      Am7      Bb                      Am7
E|-5-5-3------|-5-5-3-------8--10-|-5-5-3------|-5-5-3----------------|
B|-------6-5-6|-------6-5-6-------|-------6-5-6|-------6-5-6----------|
G|------------|-------------------|------------|----------------------|
D|------------|-------------------|------------|-------------7--8--10-|
A|------------|-------------------|------------|----------------------|
E|------------|-------------------|------------|----------------------|

Bb
Si tú no vuelves,
       Am7
no quedarán más que desiertos,
         Bb
y escucharé por si,
        Am7
algún latido le queda a Ã©sta tierra.

Puente:
              Bb
Que era tan serena

cuando me querías,
                 Am7
habia un perfume fresco que yo respiraba,
           Bb                                 C
era tan bonita, era así de grande y no tenía fin.

Coro:
F
Y cada noche vendrá una estrella
             Bb
a hacerme compañía,
         F
que te cuente cómo estoy
               C
y sepas lo que hay,
      F
dime amor, amor, amor,
              Bb
estoy aqui Â¿no ves?
        F
si no vuelves no habrá vida,
              C
no sé lo que haré.

Solo:
   F                     Bb  F                            C
E|-----------------------8-|-8----10----8----10----8----8-------|
B|---6---5---6---5---6-----|---10----10---10----10---10---10/12-|
G|-5---5---5---5---5---5---|------------------------------------|
D|-------------------------|------------------------------------|
A|-------------------------|------------------------------------|
E|-------------------------|------------------------------------|

   Bb                      Am7      Bb                      Am7
E|-5-5-3------|-5-5-3-------8--10-|-5-5-3------|-5-5-3----------------|
B|-------6-5-6|-------6-5-6-------|-------6-5-6|-------6-5-6----------|
G|------------|-------------------|------------|----------------------|
D|------------|-------------------|------------|-------------7--8--10-|
A|------------|-------------------|------------|----------------------|
E|------------|-------------------|------------|----------------------|

Verso:
Bb
Si tú no vuelves,
            Am7
no habrá esperanza ni habrá nada,
       Bb
caminaré sin ti,
          Am7
con mi tristeza bebiendo lluvia.

Puente:
              Bb
Que era tan serena

cuando me querías,
                 Am7
habia un perfume fresco que yo respiraba,
           Bb
era tan bonita, era así de grande
           Am7                C
y no tenía fin... y no tenia fin

Coro:
F
Y cada noche vendrá una estrella
             Bb
a hacerme compañía,
         F
que te cuente cómo estoy
               C
y sepas lo que hay,
      F
dime amor, amor, amor,
              Bb
estoy aqui Â¿no ves?
        F
si no vuelves no habrá vida,
              C
no sé lo que haré.

Outro:
   F                     Bb  F                            C
E|-----------------------8-|-8----10----8----10----8----8-------|
B|---6---5---6---5---6-----|---10----10---10----10---10---10/12-|
G|-5---5---5---5---5---5---|------------------------------------|
D|-------------------------|------------------------------------|
A|-------------------------|------------------------------------|
E|-------------------------|------------------------------------|





Esta es una transcripcion personal de un usuario de www.letrasyacordes.net - El material contenido en esta pagina es para exclusivo uso privado, quedando prohibida su reproduccion o retransmision, asi como su uso con fines comerciales.


Letras y Acordes punto net, el mejor sitio para encontrar y compartir letras de canciones, con sus correspondientes acordes para guitarra y piano. No te olvides de votar para calificar la calidad de las letras
Palabras utilizadas para encontrar esta página:
Chetes, SI TU NO VUELVES, letra y acordes de SI TU NO VUELVES de Chetes, canciones de Chetes, tocar con guitarra SI TU NO VUELVES, tocar con piano SI TU NO VUELVES, estudiar música
Ver más canciones de :

Chetes


 
{c} 2016 - letrasyacordes.net