Letras y Acordes |  Acordes |  Afinador |  IMC |  num A B C D E F G H I J K L M N O P Q R S T U V W X Y Z 
 
´╗┐
 

Creedence Clearwater Revival - Bad moon rising || Varios en Ingl├ęs  

Links Patrocinados / Anuncios:

RE
LA
SOL
REsus4
una_columnados_columnasaumentar_letrareducir_letravista_scrollver_impresionver_impresion_con_acordesguitarra | votar: +++++++--- | Puntaje actual: 7.50
falta: re  falta: la  falta: sol  falta: resus4  

Links Patrocinados

Links Patrocinados

calculadora de indice de masa corporal IMC

Links Patrocinados


letra y acordes de bad moon rising

Intro: 
RE LA SOL RE
E--2--2----2-2-2---0---3----2---2-2-2|---2-2-2--2-2-2--------------------|
B--3--3----3-3-3---2---3----3---3-3-3|---3-3-3--3-3-3--------------------|
G--2--2----2-2-2---2---0----2---3-4-2|---2-2-4--2-2-4--------------------|
D------------------2---0--0----------|-----------------------------------|
A----------------0-----2-------------|-----------------------------------|
e--------------------3---------------|-----------------------------------|
 
 RE      LA  SOL  RE        REsus4 RE REsus4 RE REsus4
I see a bad moon a rising
RE    LA      SOL    RE     REsus4 RE REsus4 RE REsus4
I see trouble on the way
RE    LA    SOL        RE         REsus4 RE REsus4 RE REsus4
I see earth quakes and lightnin'
RE    LA  SOL   RE     REsus4 RE REsus4 RE REsus4
I see bad times today


SOL
Don't go around tonight
           RE               RE
well, it's bound to take your life
LA           SOL          RE    REsus4 RE REsus4 RE REsus4
There's a bad moon on the rise
 

RE     LA        SOL  RE
I hear hurricanes a blowin'
 
(measure 2):
E------------------------------------|-----------------------------------|
B------------------------------------|-----------------------------------|
G--4-----4r2----2--------------------|-----------------------------------|
D----2h4----2h4----------------------|-----------------------------------|
A------------------------------------|-----------------------------------|
e------------------------------------|-----------------------------------|
 
RE         LA     SOL    RE
I know the end is comin' soon
Measure 2
RE     LA     SOL    RE
I fell rivers over flowin'
Measure 2
RE            LA      SOL      RE     REsus4 RE REsus4 RE REsus4
I hear the voice from rage and ruin


SOL
Don't go around tonight
           RE
well, it's bound to take your life
LA           SOL          RE
There's a bad moon on the rise
 
Solo
 RE LA SOL RE
E-------------------2---2-2-2--2-2-2--2-2-2------------------2-2---5-2---|
B-7-7---7-7--5--3---3---3-3-3--3-3-3--3-3-3--7-7--7-7--5--3--3---3-----3-|
G-7-7---7-7--6--4---2---2-4-2--2-2-4--2-2-4--7-7--7-7--6--4--2-----------|
D-7-7---7-7--7--5--------------------|-------7-7--7-7--7--5--0-----------|
A-----------------0------------------|-----------------------------------|
e------------------------------------|-----------------------------------|
 

E--3-3-3r0---3r0--------------------5--5-5-5--3--3-3-3---2---------------|
B--3-3----3-----3-3-3-3-3-3-3-3-3---5--5-7-5--3--3-5-3---3-measure 1 ----|
G--0-0------------2h4-2-2-4r2-2-4--/6--6-6-6-/4--4-4-4---2---------------|
D-----------------0-0-0-0-0-0-0-0----|-----------------0-----------------|
A------------------------------------|-----------------------------------|
e------------------------------------|-----------------------------------|
 
RE       LA       SOL    RE
Hope you got your things together
Measure 2
RE           LA         SOL     RE
Hope you are quite prepared to die
Measure 2
RE         LA             SOL   RE
Looks like we're in for nasty weather
Measure 2
RE         LA      SOL    RE
One eye is thakin' for an eye
Measure 2
 
SOL
Don't go around tonight
           RE
well, it's bound to take your life
LA           SOL          RE
There's a bad moon on the rise

SOL
Don't go around tonight
           RE
well, it's bound to take your life
LA           SOL          RE
There's a bad moon on the rise

Esta es una transcripcion personal de un usuario de www.letrasyacordes.net - El material contenido en esta pagina es para exclusivo uso privado, quedando prohibida su reproduccion o retransmision, asi como su uso con fines comerciales.


Letras y Acordes punto net, el mejor sitio para encontrar y compartir letras de canciones, con sus correspondientes acordes para guitarra y piano. No te olvides de votar para calificar la calidad de las letras
Palabras utilizadas para encontrar esta página:
Varios en Ingl├ęs, Creedence Clearwater Revival - Bad moon rising, letra y acordes de Creedence Clearwater Revival - Bad moon rising de Varios en Ingl├ęs, canciones de Varios en Ingl├ęs, tocar con guitarra Creedence Clearwater Revival - Bad moon rising, tocar con piano Creedence Clearwater Revival - Bad moon rising, estudiar m├║sica
Ver más canciones de :

Varios en Ingl├ęs


 
{c} 2016 - letrasyacordes.net