Letras y Acordes |  Acordes |  Afinador |  IMC |  num A B C D E F G H I J K L M N O P Q R S T U V W X Y Z 
 

 

ALGO CONTIGO || Andrés Calamaro  

Links Patrocinados / Anuncios:

una_columnados_columnasaumentar_letrareducir_letravista_scrollver_impresionver_impresion_con_acordes | votar: ++++++---- | Puntaje actual: 6.00

Links Patrocinados

Links Patrocinados

calculadora de indice de masa corporal IMC

Links Patrocinados


Esta es una transcripcion para tocarse con una sola guitarra suena
bastante bien, espero que les sirva

s : tocar la primera y presionar la segunda
/ : tocar la primera y deslizar a la segunda

Intro:

       C#7                         Cm             C
e|--0-----------|---------------|--------------|----------------|
B|----3---------|--1-1s3s1-0-1--|--4--3s4s3-1--|--1-0-----------|
G|------0-------|---------------|--5-----------|--0-------------|
D|------2-------|---------------|--5-----------|--2-------------|
A|------3-------|---------------|--3-----------|--3-------------|
E|--------------|---------------|--------------|-------3--1-----|

                   E              Am
e|--------------|--0------------|--------------|----------------|
B|----0-1-0---0-|--0-0s1s0-3-1--|--0s1s0-------|----------------|
G|--0-------3---|--1------------|--2-----2-----|--2-2/4-2-1-2---|
D|-0------------|--2------------|--2-----------|----------------|
A|--------------|--2------------|--------------|----------------|
E|--------------|---------------|--------------|----------------|

       A?
e|--------------|------------------------------|----------------|
B|--------1-----|--0s1s0-----------------------|------3----0----|
G|------0-------|--------2-0---0-2-2s3s2-1-2---|----------------|
D|----1---------|------------4-----------------|--0-0-----------|
A|--0-----------|------------------------------|----------------|
E|--------------|------------------------------|----------------|

       C#7                         Cm             C
e|--------------------------|
B|--1-0s1s0-------------3---|
G|--2-------2-0-------------|
D|--2-----------4-2-1-0-----|
A|--------------------------|
E|--------------------------|

Primera estrofa

                                 E/F
Hace falta que te diga que me   muero por tener algo
e|------0--------------------|----2------------------|
B|------0--------------------|----4------------------|
G|------2--------------------|----2------------------|
D|------0--------------------|----4------------------|
A|------2--------------------|----2------------------|
E|----3----------------------|--2--------------------|
       B/F#
  contigo
e|------0------------------|--1---------0--------|
B|------0------------------|--1---------0--------|
G|------0------------------|--1---------0--------|
D|------4------------2-1-0-|------------3--------|
A|----2--------------------|------------2--------|
E|-------------------------|----------3----------|
       C                                   E7
Es que no te has dado cuenta d lo mucho que me cuesta ser
e|------0-------------------|-------0------------0--|
B|------1-------------------|-------3------------0--|
G|------0-------------------|-------2------------1--|
D|------2-------------------|-------3------------0--|
A|----3---------------------|-----2--------------2--|
E|--------------3-----------|------------------0----|
       Am                                Am
tu amigo
e|------0-------------------|-----------------------|
B|------1-------------------|----3---1--------------|
G|------2-------------------|----4------------------|
D|------2-------------------|----5------------------|
A|----0---------------------|-----------------------|
E|--------------------------|-----------------------|
       C
yo no puedo acercarme a        tu boca
e|------0-------------------|-----------------------|
B|------1-------------------|-----6--4--------------|
G|------0-------------------|-----5-----------------|
D|------2-------------------|-----5-----------------|
A|----3---------------------|-----3-----------------|
E|--------------3-----------|-----------------------|
                             E7
sin deseartela de una manera loca
e|------0----------0------------0---|
B|------0----------3------------0---|
G|------0----------2------------1---|
D|------0----------3------------0---|
A|------2----------0------------2---|
E|----3----------1------------0-----|
     Am
Necesito controlar tu vida
e|------0---------------0-----|
B|------1---------------1-----|
G|------2---------------0-----|
D|------2---------------1-----|
A|----0---------------0-------|
E|----------------------------|
     D                             D
  saber quien te besa, quien te abriga.
e|---2-----------------------------|2|---|
B|---3-----------------------------|3|---|
G|---2-----------------------------|2|---|
D|---0-----------------------------|0|---|
A|---0-----------------------------|0|---|
E|---------------------------------------|


Segunda estrofa

                                E/F
Hace falta que te diga que me   muero por tener algo
e|------0--0--0---0---0------|----0--0--0---2--2--2--|
B|------0--0--0---0---0------|----0--0--0---4--4--4--|
G|------2--2--2---2---2------|----1--1--1---2--2--2--|
D|------0--0--0---0---0------|----2--2--2---4--4--4--|
A|------2--2--2---2---2------|----2--2--2---2--2--2--|
E|----3---------3---3--------|--2---------2----------|

       B/F#
  contigo
e|------0--0--0---0--------|--1--1--1---0--0--0--|
B|------0--0--0---0--------|--1--1--1---0--0--0--|
G|------0--0--0---0--------|--1--1--1---0--0--0--|
D|------4--4--4---4--2-1-0-|------------3--3--3--|
A|----2---------2----------|------------2--2--2--|
E|-------------------------|----------3----------|
       C                                   E7
Es que no te has dado cuenta d lo mucho que me cuesta ser
e|------0--0--0---0--0--0---|----0--0--0---0--0--0--|
B|------1--1--1---1--1--1---|----3--3--3---0--0--0--|
G|------0--0--0---0--0--0---|----2--2--2---1--1--1--|
D|------2--2--2---2--2--2---|----3--3--3---0--0--0--|
A|----3---------------------|--2-----------2--2--2--|
E|--------------3-----------|------------0----------|
       Am                                Am
tu amigo
e|------0--0--0---0---0-----|----0--0--0---0--0--0--|
B|------1--1--1---1---1-----|----3--3--3---1--1--1--|
G|------2--2--2---2---0-----|----4--4--4---2--2--2--|
D|------2--2--2---2---2-----|----5--5--5---2--2--2--|
A|----0---------0---0-------|--0---------0----------|
E|--------------------------|-----------------------|
          D               Dm
     Ya me quedan muy pocos caminos
e|------0--0--0---0--0--0---|----3--3--3---3--3--3--|
B|------1--1--1---1--1--1---|----6--6--6---4--4--4--|
G|------0--0--0---0--0--0---|----5--5--5---5--5--5--|
D|------2--2--2---2--2--2---|----5--5--5---5--5--5--|
A|----3---------------------|--3---------3----------|
E|--------------3-----------|-----------------------|
                               E7
aunque pueda parecerte en  desatino
e|------0--0--0---0--0--0--|------0--0--0----0--0--0--|
B|------0--0--0---3--3--3--|------0--0--0----1--1--1--|
G|------0--0--0---2--2--2--|------1--1--1----2--2--2--|
D|------0--0--0---3--3--3--|------0--0--0----2--2--2--|
A|------2--2--2---0--0--0--|------2--2--2--0----------|
E|----3---------1----------|----0---------------------|
                              D
no quisiera yo morirme sin tener
e|------0---------------------2--|
B|------1---------------------3--|
G|------0---------------------2--|
D|------1---------------------0--|
A|----0-----------------------0--|
E|-------------------------------|
         A
algo contigo.


Requinto

(de aqui en adelante toda sigue igual)

Ya no puedo continuar espiando
dia y noche tu llegar adivinando
Ya no se con que inocente excusa
pasar por tu caaasa.

Me quedan muy pocos caminos
aunque pueda parecerte un desatino
no quisiera yo morirme sin tener
algo contigo

sin tener algo contigo, Sin tener algo contigo.

solo me falto incluir el requinto espero que les sirva y
posteriormente lo incluire.

eso es todo amigos y que les vaya bien bonito
escandilabia@yahoo.com



Esta es una transcripcion personal de un usuario de www.letrasyacordes.net - El material contenido en esta pagina es para exclusivo uso privado, quedando prohibida su reproduccion o retransmision, asi como su uso con fines comerciales.


Letras y Acordes punto net, el mejor sitio para encontrar y compartir letras de canciones, con sus correspondientes acordes para guitarra y piano. No te olvides de votar para calificar la calidad de las letras
Palabras utilizadas para encontrar esta página:
Andrés Calamaro, ALGO CONTIGO, letra y acordes de ALGO CONTIGO de Andrés Calamaro, canciones de Andrés Calamaro, tocar con guitarra ALGO CONTIGO, tocar con piano ALGO CONTIGO, estudiar música
Ver más canciones de :

Andrés Calamaro


 
{c} 2016 - letrasyacordes.net