Letras y Acordes |  Acordes |  Afinador |  IMC |  num A B C D E F G H I J K L M N O P Q R S T U V W X Y Z 
 

 

ALGO CONTIGO - Andrés Calamaro  

Links Patrocinados / Anuncios:

una_columnados_columnasaumentar_letrareducir_letravista_scrollver_impresionver_impresion_con_acordes | votar: ++++++---- | Puntaje actual: 6.00

Links Patrocinados

Links Patrocinados

calculadora de indice de masa corporal IMC

Links Patrocinados




Diccionario de Nombres
Intro:

D  Dm  A  F#  D  Dm  E  A  D  E

e/-14-12-----12----------13-(13)-12h13-12-12h10-10/9---8-9-10-9-8-9-14
B/--------15----15-14-15----------------------------------------------
G/--------------------------------------------------------------------
D/--------------------------------------------------------------------
A/--------------------------------------------------------------------
E/--------------------------------------------------------------------

e/-------12-10-10/9-999/7--6-7-9-7-6-7--10-9-7-5-4-5-7-8/7-5-(5)-
B/-14-----------------------------------10-----------------------
G/-----9--------------------------------10-----------------------
D/---------------------------------------------------------------
A/---------------------------------------------------------------
E/---------------------------------------------------------------

e/---12-9-10h9-------------12-
B/-------------10-9-7---------
G/-9------------------10-9----
D/----------------------------
A/----------------------------
E/----------------------------

     A*
hace falta que te diga
       C#                       F#m D/-4-3-2 Em7 A7
que me muero por tener algo contigo
        D
Es que no te has dado cuenta
       F#7 F#m7                    Bm
de lo mucho que me cuesta ser tu amigo
       D                   Dsus4/Dm
yo no puedo acercarme a tu boca
        A  A/G#              F#7
sin deseartela de una manera loca
     Bm                 Dm
Necesito controlar tu vida
      E
saber   quien te besa, quien te abriga.

     A(quinto traste)
hace falta que te diga
       C#                       F#m D/-4-3-2 Em7 A7
que me muero por tener algo contigo
        D
Es que no te has dado cuenta
       F#7  F#m7                   Bm
de lo mucho que me cuesta ser tu amigo
          D            Dsus4 Dm
Ya me quedan muy pocos caminos
        A  A/G#                F#7
aunque pueda parecerte en desatino
       Dm                     E
no quisiera yo morirme sin tener
         A
algo contigo.


Punteo...
A C# F#m A D F# Bm

e/-----------12-9-10h9-------------12-/-12-12-9--7-5/4-----------9-7-9
B/---------------------12-10-9-7------/----------------7-6-7-8-9------
G/---------9---------------------9----/-------------------------------
D/-----6-9----------------------------/-------------------------------
A/-4-7--------------------------------/-------------------------------
E/------------------------------------/-------------------------------

e/-7-6-7-55-9h7h5--------------------------------------14-12-14h12----
B/----------------10-9-8-7h8h7-------------8-10-(8h10)----------------
G/-----------------------------9-8-9-7-6-9----------------------------
D/--------------------------------------------------------------------
A/--------------------------------------------------------------------
E/--------------------------------------------------------------------

e/-10-9-10-10---------
B/------------10-9-10-
G/--------------------
D/--------------------
A/--------------------
E/--------------------


       D                 Dm
Ya no puedo continuar espiando

e/-----12---------------------13-
B/-------------------------------
G/-13-------------------13-13----
D/-------------------------------
A/-------------------------------
E/-------------------------------
       A  A/G#                F#
dia y noche tu llegar adivinando
       Bm                    B7
Ya no se con que inocente excusa
              E  F#
pasar por tu caaasa
     D                Dm
Me quedan muy pocos caminos
         A A/G#                F#7
aunque pueda parecerte un desatino
       Dm                     E
no quisiera yo morirme sin tener
         D    Dm
algo contigo
        A A/G#     F#          D      E    A
sin tener algo contigo, Sin tener algo contigo.



e/-14-12-----12----------13-(13)-12h13-12-12h10-10/9---8-9-10-9-8-9-14
B/--------15----15-14-15----------------------------------------------
G/--------------------------------------------------------------------
D/--------------------------------------------------------------------
A/--------------------------------------------------------------------
E/--------------------------------------------------------------------

e/-------10h9-6-7-9-7-6-7-10-9-7------------9--------------------
B/-14---------------------10-----10-9-10/12----12-10-9h10-9/7-7h6
G/-----9---------------------------------------------------------
D/---------------------------------------------------------------
A/---------------------------------------------------------------
E/---------------------------------------------------------------

e/-------------------------------------------------------------------
B/-6h7-7h5-------6/7-(6---------12-10-10-9-10-10-10-10-10-10h9h10...-
G/---------7-6----------9-7)-----------------------------------------
D/-------------7-------------11--------------------------------------
A/-------------------------------------------------------------------
E/-------------------------------------------------------------------

e/------7-5-4-5-4-5-5-5h4------4-5-7-8-8-7-5-4-5-5(/4/2)-----7-5-4h5-
B/-7--7---7----------------6h7-----------------------------7---------
G/-------------------------------------------------------4-----------
D/-------------------------------------------------------------------
A/-------------------------------------------------------------------
E/-------------------------------------------------------------------

e/-4/2-------------------------------
B/------7/6/7-6/7/6-10-9-10-10-10-10-
G/-----------------------------------
D/-----------------------------------
A/-----------------------------------
E/-----------------------------------



         A/G#                      A*
E/----/-----/-----/-       E/----/-----/--O--/-
B/----/--O--/-----/-       B/----/--O--/-----/-
G/----/--O--/-----/-       G/----/--O--/-----/-
D/----/--O--/-----/-       D/----/--O--/-----/-
A/----/-----/-----/-       A/----/-----/-----/-
E/----/-----/--O--/-       E/----/-----/-----/-
   I     II   III             I     II   III



Esta es una transcripcion personal de un usuario de www.letrasyacordes.net - El material contenido en esta pagina es para exclusivo uso privado, quedando prohibida su reproduccion o retransmision, asi como su uso con fines comerciales.


Letras y Acordes punto net, el mejor sitio para encontrar y compartir letras de canciones, con sus correspondientes acordes para guitarra y piano. No te olvides de votar para calificar la calidad de las letras
Palabras utilizadas para encontrar esta página:
Andrés Calamaro, ALGO CONTIGO, letra y acordes de ALGO CONTIGO de Andrés Calamaro, canciones de Andrés Calamaro, tocar con guitarra ALGO CONTIGO, tocar con piano ALGO CONTIGO, estudiar música
Ver más canciones de :

Andrés Calamaro


 
{c} 2016 - letrasyacordes.net