Letras y Acordes |  Acordes |  Afinador |  IMC |  num A B C D E F G H I J K L M N O P Q R S T U V W X Y Z 
 

 

ESPIRITU SANTO VEN || Barak  

Links Patrocinados / Anuncios:

una_columnados_columnasaumentar_letrareducir_letravista_scrollver_impresionver_impresion_con_acordes | votar: ++++------ | Puntaje actual: 4.67

Links Patrocinados

Links Patrocinados

calculadora de indice de masa corporal IMC

Links Patrocinados


  Em                                 D
E|-3-------3-------3-------3-5-3---|-2-------2-------2-------2-3-2---|
B|-----5-------5-------5---------5-|-----3-------3-------3---------3-|
G|---4---4---4---4---4---4---------|---2---2---2---2---2---2---------|
D|-2-------2-------2-------2-------|-0-------0-------0-------0-------|
A|---------------------------------|---------------------------------|
E|---------------------------------|---------------------------------|

  C                                  B
E|-0-------0-------0-------0-2-0---|-2-------2-------2-------2-9-----|
B|-----1-------1-------1---------1-|-----4-------4-------4-----------|
G|---0---0---0---0---0---0---------|---4---4---4---4---4---4---------|
D|---------------------------------|---------------------------------|
A|-3-------3-------3-------3-------|-2-------2-------2-------2-------|
E|---------------------------------|---------------------------------|

Em                           D
Estoy aquĂ­, desesperado por ti
            C                         B
Con un corazĂłn sediento, que espera beber de ti

C
Cuando tu gloria desciende a un lugar
D
Toda la tierra tiene que adorar
C
Resucitan los muertos se sanan enfermos
B
por tu poder.

C
Queremos de ti llĂ©nanos de ti
D
EspĂ­ritu santo envuĂ©lvenos en ti
C                      B
Derrama tu gloria, Esperamos por ti

Em
Ven, ven, ven espĂ­ritu santo
D
Ven, ven, ven espĂ­ritu santo
C                           B
Ven, ven, ven llena este lugar

C
Cuando tu gloria desciende a un lugar
D
Toda la tierra tiene que adorar
C
Resucitan los muertos se sanan enfermos
B
por tu poder.

C
Queremos de ti llĂ©nanos de ti
D
EspĂ­ritu santo envuĂ©lvenos en ti
C                      B
Derrama tu gloria, Esperamos por ti

Em
Ven, ven, ven espĂ­ritu santo
D
Ven, ven, ven espĂ­ritu santo
C                           B
Ven, ven, ven llena este lugar

Em
Ven, ven, ven espĂ­ritu santo
D
Ven, ven, ven espĂ­ritu santo
C                           B
Ven, ven, ven llena este lugar

F#m
Ven, ven, ven espĂ­ritu santo
E
Ven, ven, ven espĂ­ritu santo
D                           C#
Ven, ven, ven llena este lugar

F#m
Ven, ven, ven espĂ­ritu santo
E
Ven, ven, ven espĂ­ritu santo
D                           C#
Ven, ven, ven llena este lugar

F#m
Ven, ven, ven espĂ­ritu santo
E
Ven, ven, ven espĂ­ritu santo
D                           C#
Ven, ven, ven llena este lugar



Esta es una transcripcion personal de un usuario de www.letrasyacordes.net - El material contenido en esta pagina es para exclusivo uso privado, quedando prohibida su reproduccion o retransmision, asi como su uso con fines comerciales.


Letras y Acordes punto net, el mejor sitio para encontrar y compartir letras de canciones, con sus correspondientes acordes para guitarra y piano. No te olvides de votar para calificar la calidad de las letras
Palabras utilizadas para encontrar esta página:
Barak, ESPIRITU SANTO VEN, letra y acordes de ESPIRITU SANTO VEN de Barak, canciones de Barak, tocar con guitarra ESPIRITU SANTO VEN, tocar con piano ESPIRITU SANTO VEN, estudiar mĂşsica
Ver más canciones de :

Barak


 
{c} 2016 - letrasyacordes.net